busca

Oceanos (Oceans)

Ana Nóbrega

 1:26
G|---|-----------------|----------------|----------------|-----------------|
D|---|-----------------|-------------4--|----------------|-----------------|
A|-0-|-2-2-2-2-2-2-4-4-|-5-5-5-5-5-5----|-------------4--|-----------------|
E|---|-----------------|----------------|-5-5-5-5-5-5----|-3-3-3-3-3-3-5-5-|

G|:-----------------|-----------------|-----------------|-----------------:|2X
D|:-----------------|-----------------|-----------------|-----------------:|
A|:-2-2-2-2-2-2-4-4-|-5-5-5-5-5-5-5-5-|-----------------|-----------------:|
E|:-----------------|-----------------|-5-5-5-5-5-5-5-5-|-3-3-3-3-3-3-3-3-:|

G|-----------|--------|----------------|--------|--------|------------------|
D|-----------|--------|----------------|--------|--------|-7--77-----7--77--|
A|-10--1010--|-5--55--|----------------|--------|-5--55--|-------5/7--------|
E|-----------|--------|-5--55---5--55--|-3--33--|--------|------------------|

G|-----------|--------|----------------|----------------|
D|-----------|--------|----------------|----------------|
A|-10--1010--|-5--55--|----------------|----------------|
E|-----------|--------|-5--55---5--55--|-3--33---3--35--|

G|-----------------|----------------|-----------------|------------|
D|-----------------|------------4---|-----------------|------------|
A|-2-2-52--2-2-4-4-|-5---5---5------|----------5h77-4-|------------|
E|-----------------|---7---7--------|-5-5-5-5---------|-3--303--5--|

G|-----------------|-----------------|-----------------|---------------------|
D|-----------------|-------------4---|-----------------|---------------------|
A|-2-2-52--2-2-4-4-|-5---5--5-5------|----------5h77-4-|------7-9-10--10\7---|
E|-----------------|---7-----7-------|-5-5-5-5---------|-3-----------------7-|


 4:37
G|:-----------------|-----------------|-----------------|-----------------:|2X
D|:-----------------|-----------------|-----------------|-----------------:|
A|:-2~--------------|-----------------|-5~--------------|-----------------:|
E|:-----------------|-3~--------------|-----------------|-5~--------------:|

G|:-----------------|-----------------|-----------------|-----------------:|2X
D|:-----------------|-----------------|-----------------|-----------------:|
A|:-----------------|-5~--------------|-----------------|-7~--------------:|
E|:-3~--------------|-----------------|-5~--------------|-----------------:|

G|:-----------------|-----------------|-----------------|-----------------:|2X
D|:-----------------|-----------------|-----------------|-----------------:|
A|:-2~------------4-|-5~--------------|-----------------|-7~--------------:|
E|:-----------------|-----------------|-5~--------------|-----------------:|

G|-------------|-------------|-------------|-------------|
D|-------------|-------------|-------------|-------------|
A|-2--2--2--4--|-5--5--5--5--|-------------|-7--7--7--7--|
E|-------------|-------------|-5--5--5--5--|-------------|

G|-------------|-------------|-------------|-----------------------|
D|-------------|-------------|-------------|-----------------------|
A|-2--2--2--4--|-5--5--5--5--|-------------|-7--7--7-7-7-7-7-7-7-7-|
E|-------------|-------------|-5--5--5--5--|-----------------------|

G|:-----------------|-----------------|-----------------|-----------------:|
D|:-----------------|-----------------|-----------------|-----------------:|2X
A|:-2-2-2-2-2-2-4-4-|-5-5-5-5-5-5-5-5-|-----------------|-7-7-7-7-7-7-7-7-:|
E|:-----------------|-----------------|-5-5-5-5-5-5-5-5-|-----------------:|

G|-------|
D|-------|
A|-------|
E|-3~----|

Clipes

Cifra Club Pro

Aproveite o Cifra Club com benefícios exclusivos e sem anúncios
7 dias grátis
Cifra Club Pro
Aproveite o Cifra Club com benefícios exclusivos e sem anúncios
7 dias grátis