A
123
X02220
B
234
X24442
C#m
234
X46654
E
123
022100
E4
123
022200
F#m
34
244222
G#m
34
466444
Tom: G
[Intro] E  E4  E  E4
        E  F#m  A  E  E4

#1t1##1t2#E|------12ha-------12ha------------------------|
B|-12ha-----------------12ha-------------------|
G|---------------------------------------------|
D|---------------------------------------------|
A|---------------------------------------------|
E|---------------------------------------------|#/1t2##/1t1#

[Primeira Parte]

E                              F#m
  Às vezes acho que eu fiquei louco
A                               E
  Me dando conselhos até ficar rouco
E                               F#m
  Às vezes acho que eu perdi a memória
A                              E
  Contando de novo a mesma história

[Refrão]

  F#m                   E
Aqui onde as horas não passam
  F#m                   E
Aqui onde o Sol não me vê
  F#m                G#m
Aqui onde eu não moro
 A                E     B
Não existo sem você

[Segunda Parte]

E                                   F#m
  Me olho no espelho e me vejo do avesso
A                                E
  O mesmo rosto que eu não reconheço
E                            F#m
  O rádio ligado, chuva e calor
A                                  E
  As gotas me ferem mas não sinto dor

[Refrão]

  F#m                   E
Aqui onde as horas não passam
  F#m                   E
Aqui onde o Sol não me vê
  F#m               G#m
Aqui onde eu não moro
 A               E     B
Não existo sem você

[Solo] A  E  A  E  C#m  F#m  C#m  F#m  C#m  F#m  B

#2t1##2t2#E|---------------------------------------------|
B|-7/9--7--5---5---7/9--7--5---5---------------|
G|-----------6---------------6-----------------|
D|---------------------------------------------|
A|---------------------------------------------|
E|---------------------------------------------|#/2t2##/2t1#

#3t1##3t2#E|---7/9--7--4-5-4---4-------------------------|
B|-----------------5---------------------------|
G|---------------------------------------------|
D|---------------------------------------------|
A|---------------------------------------------|
E|---------------------------------------------|#/3t2##/3t1#

#4t1##4t2#E|--7/9--7--4-5-4------------------------------|
B|----------------5------5--7--8-7-8-----------|
G|------------------4--6--------------9-6-5/6--|
D|---------------------------------------------|
A|---------------------------------------------|
E|---------------------------------------------|#/4t2##/4t1#

[Refrão]

  F#m                   E
Aqui onde as horas não passam
  F#m                   E
Aqui onde o Sol não me vê
  F#m               G#m
Aqui onde eu não moro
 A               E     B
Não existo sem você

[Final] E  E4  E  E4 
Composição: Dinho Ouro PretoColaboração e revisão: Gabriel Silvaneirlon santosRavel RibeiroLenon Foreste mais 3