busca

Hotel Jean Genet

Capital Inicial

Tom: A
INTRO: RIFF 1 (4X)

(RIFF 1)
|-------------------------------------|
|-------------------------------------|
|-------------------------------------|
|-5--5h7p5---5-5s7-9-7-5---5h7p5---5--|
|----------7---------------------7----|
|-------------------------------------|


Pérolas falsas
im casaco de pele de rato
ela corre pra se proteger da chuva ácida
No centésimo andar
alguém esperava
mas a carne é mais fraca
que o medo
e ela amava o perigo

A              F#
Na entrada um aviso dizia:
     A              F#
Bem vindo ao hotel Jean Genet
    A                F#     
conheça o inferno sem ter que morrer

99 canais de TV todos foras do ar
e 5 estrelas trazidas de outro sistema solar
luxo e desgosto esperando você 
e nem é preciso saber quem foi Jean Genet

(RIFF 2)
|--------------------------------------|
|--------------------------------------|
|--------------------------------------|
|-6-6-6-6-7-6--6-6-6-7-6--6-6-7-6---0--|
|-7-7-7-7-7-7--7-7-7-7-7--7-7-7-7-7-7--|
|--------------------------------------|


(RIFF 1)
Padres, drogas e Nossa Senhora dos crimes perfeitos
não cansam de lembrar:
Você sempre pode sair, você sempre pode voltar
mas quem passou por aqui
leva uma tatuagem na alma. 

A              F#
Na entrada um aviso dizia:
     A              F#
Bem vindo ao hotel Jean Genet
    A                F#     
conheça o inferno sem ter que morrer

(RIFF 3)
|--------------------------------------------------|
|--------------------------------------------------|
|--------------------------------------------------|
|-----6---7---6----6---7---6----6---7-6-----5------|
|-7-7---7---7----7---7---7----7---7-----7-5---5-7--|
|--------------------------------------------------|

(RIFF 4)
|------------------|
|--7--tocar--------|
|--7----várias-----|
|--7--------vezes--|
|------------------|
|------------------|

 Finaliza com o (RIFF 3).

Clipes