busca

Melhor do Que Ontem

Capital Inicial

Tom: D
Intro 4x: D9 G

Para quem quiser optar de colocar o baixo junto a base
(A base e o riff se coincidem com o tempo da música)

Riff 1 com Baixo
E|-------------------------3---------------------
B|-------3-----------------3---------------------
G|-------2--------------------------------------- (4x)
D|-----------------------------------------------
A|-------------------------2---------------------
E|--3-5--------------5-3---3---------------------

Riff 1 
E|-----------------------------------------------
B|---------5-5-5-5-3-----------------------------
G|-----------------------------2-2-2-2-0--------- (4x)
D|-----------------------------------------------
A|-----------------------------------------------
E|-----------------------------------------------

D9                   G
Eu ainda sinto o gosto
             D9
Da noite passada
              G
Que parecia não ter fim

 Refrão  2x:

 G           D9
Espero que hoje
                      G
Seja melhor do que ontem

Riff 1 
E|-----------------------------------------------
B|---------5-5-5-5-3-----------------------------
G|-----------------------------2-2-2-2-0--------- (2x)
D|-----------------------------------------------
A|-----------------------------------------------
E|-----------------------------------------------


D9                  G
Com o sol no meu rosto
          D9
Eu vejo você
                   G
De longe olhando pra mim

Refrão:

 G           D9
Espero que hoje
                      G
Seja melhor do que ontem

           Bm
Espero que hoje
                     G
Seja melhor do que ontem

Riff 1 
E|-----------------------------------------------
B|---------5-5-5-5-3-----------------------------
G|-----------------------------2-2-2-2-0--------- (2x)
D|-----------------------------------------------
A|-----------------------------------------------
E|-----------------------------------------------


     Bm
Eu levanto e vou
         F#m
Quando a vida me alcançar
     G              G
Tudo isso vai passar
Bm                   F#m
   Eu esqueço onde estou
                    G
Sem ter medo, sem pensar
                     G
Deixo o vento me levar (deixo o vento me levar)


Intro 2x: D9  G

Riff 1 
E|-----------------------------------------------
B|---------5-5-5-5-3-----------------------------
G|-----------------------------3-3-3-3-0--------- (2x)
D|-----------------------------------------------
A|-----------------------------------------------
E|-----------------------------------------------

D9               G
As horas sem dormir
                 D9
Os dias que parecem
                G
Que nunca vão acabar

 Refrão  2x:

 G          D9
Espero que hoje
                    G
Seja melhor do que ontem

Riff 1 
E|-----------------------------------------------
B|---------5-5-5-5-3-----------------------------
G|-----------------------------2-2-2-2-0--------- (2x)
D|-----------------------------------------------
A|-----------------------------------------------
E|-----------------------------------------------


D9                  G
Eu me vejo no espelho
              D9
E olho por olhar
               G
E volto a respirar


Refrão:

 G           D9
Espero que hoje
                     G
Seja melhor do que ontem

           Bm
Espero que hoje
                     G
Seja melhor do que ontem

Riff 1 
E|-----------------------------------------------
B|---------5-5-5-5-3-----------------------------
G|-----------------------------2-2-2-2-0--------- (2x)
D|-----------------------------------------------
A|-----------------------------------------------
E|-----------------------------------------------



     Bm
Eu levanto e vou
         F#m
Quando a vida me alcançar
     G              G
Tudo isso vai passar (Tudo isso vai passar)
Bm                   F#m
   Eu esqueço onde estou
                    G
Sem ter medo, sem pensar
                     G
Deixo o vento me levar


Bm   A
  Escolhas

G
  Tantas coisas pra fazer

Bm    A
  Vontades

G
  O que se chama de viver

Bm   A
  Desejos

G
  Sempre vão mudar

Bm   A
  Caminhos

G                Bm
Pronto pra recomeçar

Refrão  4x:

             D9
Espero que hoje
                     G
Seja melhor do que ontem

             D9
Espero que hoje

Clipes