busca

Perguntas Sem Respostas

Capital Inicial

Tom: G
Intro: Riff 2x  (C Em Am C Em Am) (2X)
 
Riff
E|-----------------------------------|
B|-3s5-8-8-5-8-5-5s3-3-3-3s1-1-1-3-1-|

E|----------------------------------------|
B|-3s5-8-8-5-8-5-8s10-10-10-12-12-10-10-8-|

(C Em Am)
O que o futuro reserva pra mim
Uma vida de tédio ou diversão sem fim
Ser o primeiro a nunca envelhecer
Não precisar de ninguém
Não ter nada a perder

D        D4
 Se você hesitar
D       D4         C      Cadd9
 A vida vai passar ah, ah ahahah

Refrão:
G                C9          D/F#
 Solitários rejeitados esquecidos 
    Am                     C
 A vida e inventada e descoberta
G                   C9           D/F#
 Eu não tenho as respostas e também não sei 
    C         Am           G
 Se essas são as perguntas certas

Intro

(C Em Am)
Onde o destino vai me levar
A uma rua escura ou de frente pro mar
Eu vou mandar ou ser mandado
Ser livre e despreocupado

D        D4
 Se você hesitar
D       D4         C      Cadd9
 Ninguém vai esperar ah, ah ahahah

Refrão

Solo
E|-----------------------------------|
B|-----------------------------------|
G|-7s9-7-7-5-5-7-7-7s9-9-7-7-5-5-7-7-|

E|------------------------------------------|
B|-8s10-8---8s10-8---8s10-10-10-12-12-10-10-|
G|--------9--------9------------------------|

E|-----------------------------------|
B|-----------------------------------|
G|-7s9-7-7-5-5-7-7-7s9-9-7-7-5-5-7-7-|

E|-----------------------------------------------|
B|-8s10-8---8s10-8---8s10-10-10-12-12-10-10-8s10-|
G|--------9--------9-----------------------------|

D        D4
 Se você hesitar
D       D4         C      Cadd9
 Ninguém vai esperar ah, ah ahahah

G                C9           D/F#
 Solitários rejeitados esquecidos 
    Am                     C
 A vida e inventada e descoberta
G                   C9            D/F#
 Eu não tenho as respostas e também não sei 
    C         Am           G
 Se essas são as perguntas certas

Clipes