busca

Vamos Comemorar

Capital Inicial

Tom: G
Solo 2x:
  ''...Meia noite no meio do nada...''
E|----------------------------------------------------
B|-------10-11-10-------------------------------------
G|-2/10---------------10/12-10------10--10/12-10------
D|----------------10-------------12-------------------
A|----------------------------------------------------
E|----------------------------------------------------

E|------------------------------------------
B|------------------------------------------
G|------10--12--------9---10s---------------
D|-10-----------------------------10--10/12-
A|-----------------8-----------10-----------
E|------------------------------------------
  ''...E caio no abismo escuro...''
E|------------------------------------------
B|---------10------11----13-----------------
G|-----10------10-----10--------------------
D|-12---------------------------------------
A|------------------------------------------
E|------------------------------------------

Clipes

Cifra Club Pro

Aproveite o Cifra Club com benefícios exclusivos e sem anúncios
7 dias grátis
Cifra Club Pro
Aproveite o Cifra Club com benefícios exclusivos e sem anúncios
7 dias grátis