busca

O Segundo Sol

Cássia Eller

Tom: C (forma dos acordes no tom de A) Capotraste na 3ª casa
Intro: A9

Primeira parte:
E                          Bm7
  Quando o segundo sol chegar
       D                           A
 Para realinhar as órbitas dos planetas
                    E
E|----------------3---------|
B|----------------3---------|
G|----------------4---------|
D|----------------5---------|
A|----------------5---------|
E|---------6p5p3--3---------|

E                              Bm7
 Derrubando com assombro exemplar
              D
 O que os astrônomos diriam se tratar
        A
 De um outro cometa

E                         Bm7
 Quando o segundo sol chegar
      D                            A
 Para realinhar as órbitas dos planetas
E                              Bm7
 Derrubando com assombro exemplar
              D
 O que os astrônomos diriam se tratar
        A
 De um outro cometa

Passagem:
  (ou-tro co-meta)
E|----------------------------------|
B|-5---5-----5----------------------|
G|-5---5-----5----------------------|
D|-5h7-5-----5h7---------------5h7--|
A|--------7-------------5h7---------|
E|----------------5h7---------------|

(riff 1) (Pode tocar nas seis cordas)
       E
E|--3-----------------------------3----------------------------|
B|--3-----------------------------3----------------------------|
G|--4---7-9-10-9-10-12/14-12------4---7-9-10-9-10-12/14-14/16--|
D|--5---x-x--x-x--x-x--x--x-------5---x-x--x-x--x--x--x--x--x--|   (2x)
A|--5---5-7--8-7--8-10/12-10------5---5-7--8-7--8-10/12-12/14--|
E|--3-----------------------------3----------------------------|

Segunda parte:
 E                             E7
 Não digo que não me surpreendi
 E
 Antes que eu visse, você disse e eu não pude
     E7
 acreditar

E|---------------------5--|
B|---------------------6--|
G|--7-9-10-9-14-12--10-5--|
D|--x-x-x--x--x--x--x--3--|
A|--5-7-8--7-12-10--8-----|
E|------------------------|

 D          A/C#        Bm7
  Mas você pode ter certeza
A                             Em7
 De que o seu telefone irá tocar
     D                  A/C#
 Em sua nova casa que abriga
           Bm7
 agora a trilha
      A                   G
 Incluída nessa minha conversão
A                    Em7
 Eu só queria te contar
 Que eu fui lá
  D
 fora e vi dois sois num dia
 A/C#      Bm7        A
 E a vida que ardia sem explicação

(repete a primeira parte)
(repete segunda parte)

     D
 Explicação
      A
 Não tem explicação
     D
 Explicação
      A
 Não tem explicação
     D
 Explicação
               A
 Não tem, não tem explicação
     D
 Explicação
             D   A/C#  Bm7
 Não tem expli...ca...ção
  A   D/F#  A
 Não tem, não tem

Clipes