busca

O Segundo Sol

Cássia Eller

Tom: C (forma dos acordes no tom de A) Capotraste na 3ª casa
[Intro] A9

[Primeira Parte]

E                          Bm7
  Quando o segundo sol chegar
      D                           A     
Para realinhar as órbitas dos planetas

                  E
E|----------------3---------------------------|
B|----------------3---------------------------|
G|----------------4---------------------------|
D|----------------5---------------------------|
A|----------------5---------------------------|
E|---------6p5p3--3---------------------------|

E                               Bm7
  Derrubando com assombro exemplar
             D
O que os astrônomos diriam se tratar
       A
De um outro cometa

E                         Bm7
 Quando o segundo sol chegar
     D                            A
Para realinhar as órbitas dos planetas
E                              Bm7
 Derrubando com assombro exemplar
             D
O que os astrônomos diriam se tratar
       A
De um outro cometa

[Segunda Parte]

[Passagem]

E|--------------------------------------------|
B|-5---5-----5--------------------------------|
G|-5---5-----5--------------------------------|
D|-5h7-5-----5h7---------------5h7------------|
A|--------7-------------5h7-------------------|
E|----------------5h7-------------------------|

[Riff 1]

    E
E|--3-----------------------------------------|
B|--3-----------------------------------------|
G|--4---7-9-10-9-10-12/14-12------------------|
D|--5-----------------------------------------|
A|--5---5-7--8-7--8-10/12-10------------------|
E|--3-----------------------------------------|

E|--3-----------------------------------------|
B|--3-----------------------------------------|
G|--4---7-9-10-9-10-12/14-14/16---------------|
D|--5---x-x--x-x--x--x--x--x--x---------------|
A|--5---5-7--8-7--8-10/12-12/14---------------|
E|--3-----------------------------------------|

                             E           
Não digo que não me surpreendi

Antes que eu visse, você disse 
                 E
E eu não pude acreditar

[Riff 2]

   E
E|--3-----------------------------------------|
B|-3------------------------------------------|
G|-4--7-9-10-9-14-12-10-----------------------|
D|-5------------------------------------------|
A|-5--5-7-8--7-12-10-8------------------------|
E|-3------------------------------------------|

[Refrão]

D           A/C#        Bm7
  Mas você pode ter certeza
A                              Em7
  De que o seu telefone irá tocar
    D                  A/C#           Bm7
Em sua nova casa que abriga agora a trilha
     A                   G
Incluída nessa minha conversão
A                    Em7
  Eu só queria te contar
               D
Que eu fui lá fora e vi dois sois num dia
A/C#            Bm7      A
     E a vida que ardia sem explicação

[Primeira Parte]

E                          Bm7
  Quando o segundo sol chegar
      D                           A     
Para realinhar as órbitas dos planetas

                  E
E|----------------3---------------------------|
B|----------------3---------------------------|
G|----------------4---------------------------|
D|----------------5---------------------------|
A|----------------5---------------------------|
E|---------6p5p3--3---------------------------|

E                               Bm7
  Derrubando com assombro exemplar
             D
O que os astrônomos diriam se tratar
       A
De um outro cometa

[Segunda Parte]

[Passagem]

E|--------------------------------------------|
B|-5---5-----5--------------------------------|
G|-5---5-----5--------------------------------|
D|-5h7-5-----5h7---------------5h7------------|
A|--------7-------------5h7-------------------|
E|----------------5h7-------------------------|

[Riff 1]

    E
E|--3-----------------------------------------|
B|--3-----------------------------------------|
G|--4---7-9-10-9-10-12/14-12------------------|
D|--5-----------------------------------------|
A|--5---5-7--8-7--8-10/12-10------------------|
E|--3-----------------------------------------|

E|--3-----------------------------------------|
B|--3-----------------------------------------|
G|--4---7-9-10-9-10-12/14-14/16---------------|
D|--5---x-x--x-x--x--x--x--x--x---------------|
A|--5---5-7--8-7--8-10/12-12/14---------------|
E|--3-----------------------------------------|

 E                             
Não digo que não me surpreendi

Antes que eu visse, você disse e eu não pude

Acreditar

[Riff 2]

   E
E|--3-----------------------------------------|
B|-3------------------------------------------|
G|-4--7-9-10-9-14-12-10-----------------------|
D|-5------------------------------------------|
A|-5--5-7-8--7-12-10-8------------------------|
E|-3------------------------------------------|

[Refrão]

D           A/C#        Bm7
  Mas você pode ter certeza
A                              Em7
  De que o seu telefone irá tocar
    D                  A/C#           Bm7
Em sua nova casa que abriga agora a trilha
     A                   G
Incluída nessa minha conversão
A                    Em7
  Eu só queria te contar
               D
Que eu fui lá fora e vi dois sois num dia
A/C#            Bm7      A
     E a vida que ardia sem explicação

    D           A
Explicação não, tem explicação
    D                A
Explicação não, não tem explicação
    D                       A/C#  Bm7
Explicação não tem expli___ca____ção
 A   D/F#  A
Não tem,  não tem

Clipes