Exagerado

Cazuza

Am
123
X02210
B7
1234
X21202
Bm
234
X24432
C
123
X32010
C/G
1234
332X1X
D
123
XX0232
D/G
1234
3XX232
Em
12
022000
F#m7(5-)
1234
2X221X
F7M
1234
1X221X
G
123
320003
Tom: G
[Intro] G  D/G  C/G
        G  D/G  C/G 
        G  D/G  C/G 
        G  D/G  C/G 

#1t1#   G               D/G     C/G
#1t2#E|------------------------------------------|
B|------------------------------------------|
G|------------------------------------------|
D|-0---------------4-------2----------------|
A|-2---------------5-------3----------------|
E|---3-3-3-3-3-3-3---3-3-3---3-3-3----------|#/1t2##/1t1#

[Primeira Parte]

G          D     C
  Amor da minha vida
G               D    C
  Daqui até a eternidade
Em                    D
   Nossos destinos foram traçados 
    C          Am  Bm  D
Na maternidade

G                 D    C
  Paixão cruel desenfreada
G                 D      C
  Te trago mil rosas roubadas
Em                          D
   Pra desculpar minhas mentiras
B7
   Minhas mancadas

[Refrão]

      C
Exagerado
   D
Jogado aos teus pés
        G      D   C
Eu sou mesmo exagerado
  Em                D   C  Am  Bm  D
Adoro um amor inventado

[Segunda Parte]

G                    D    C
  Eu nunca mais vou respirar
G              D    C
  Se você não me notar
Em                         D
   Eu posso até morrer de fome
      C
Se você não me amar

[Terceira Parte]

Em                      Bm
   E por você eu largo tudo
F7M                   F#m7(5-)
    Vou mendigar, roubar, matar
Em                 Bm
   Até nas coisas mais banais
F7M
    Prá mim é tudo
F#m7(5-)           B7
         Ou nunca mais

[Refrão]

      C
Exagerado
   D
Jogado aos teus pés
        G      D   C
Eu sou mesmo exagerado
  Em                D   C  Am  Bm  D
Adoro um amor inventado

( G  D/G  C/G )
( G  D/G  C/G )
( G  D/G  C/G )
( G  D/G  C/G )

[Solo] G  D  C 
       G  D  C 
       Em  D  C

[Parte 1 de 3]

#2t1##2t2#E|--14b15--12p10-12-----------------------------------|
B|------------------12~-------------------------------|
G|-----------------------2/4-2p0-2h4-2/4~-------------|
D|----------------------------------------------------|
A|----------------------------------------------------|
E|----------------------------------------------------|#/2t2##/2t1#

[Parte 2 de 3]

#3t1##3t2#E|----------------------------------------------------|
B|-----7-8---7-8-10-7-8-9-10-12b13r12-----------------|
G|-7-9-----9--------------------------12~-------------|
D|----------------------------------------------------|
A|----------------------------------------------------|
E|----------------------------------------------------|#/3t2##/3t1#

[Parte 3 de 3]

#4t1##4t2#E|----------------------------------------------------|
B|-----7-8-7------------------------------------------|
G|-7-9-------9-7~-------------------------------------|
D|----------------------------------------------------|
A|----------------------------------------------------|
E|----------------------------------------------------|#/4t2##/4t1#

[Quarta Parte]

Em                      Bm
   E por você eu largo tudo
F7M                  F#m7(5-)
    Carreira, dinheiro, canudo
Em                 Bm
   Até nas coisas mais banais
F7M
    Prá mim é tudo
F#m7(5-)           B7
         Ou nunca mais

[Refrão]

      C
Exagerado
   D
Jogado aos teus pés
        G      D   C
Eu sou mesmo exagerado
  Em                D   C  Am  Bm  D
Adoro um amor inventado

   C
Jogado aos teus pés
D                   G
  Com mil rosas roubadas
D     C
Exagerado
     Em                D  C  Am  Bm  D
Eu adoro um amor inventado

   C                
Jogado aos teus pés
D         G      D   C
  Eu sou mesmo exagerado
  Em                D   C  Am  Bm  D
Adoro um amor inventado
Composição: Cazuza / Ezequiel Neves / LeoniColaboração e revisão: Leandro SandimGetúlio VasconcelosLAURO STAMPACCHIOarthur acciolye mais 7
Videoaula Exagerado (violão completa)