busca

Era Isso Que Você Queria

Cleber e Cauan

Tom: F
[Intro]  Gm  Bb  F  C9



E|----------------------------------------------------|
B|----6-6---------------------------------------------|
G|-/7-----7-7-7-7p5--5-5-5/3-3~-----------------------|
D|----------------------------------------------------|
A|----------------------------------------------------|
E|----------------------------------------------------|

E|----------------------------------------------------|
B|----6-6---------------------------------------------|
G|-/7-----7-7-7-7p5--5-5-5/3-3--5/7-5~----------------|
D|----------------------------------------------------|
A|----------------------------------------------------|
E|----------------------------------------------------|

E|-6-5------------------------------------------------|
B|-x---6-6/8~---6p5-----------------------------------|
G|-x-----------------5~-------------------------------|
D|-x--------------------------------------------------|
A|-x--------------------------------------------------|
E|----------------------------------------------------|

  F                C9
Sorri como se nunca tivesse chorado
               Gm
Amei demais mesmo não sendo amado
               Bb
O seu passado eu deixei de lado
  F                       C9
Juntei todos os cacos de um cristal quebrado
               Gm
Eu recolei pedaço por pedaço
                       Bb
Me refiz inteiro mesmo estando machucado

 Dm           Bb
Tinha escolhido você
         F
Mesmo sem me escolher
     C9
Quis você
 Dm        Bb
Sempre dona da razão
           F
Escolheu a contra mão
      C9          C9  Bb  Am
Bateu de frente com a solidão

 Gm
Agora pode ligar pras amigas
              Bb
Faz intriga com meu nome
Fala que eu não fui homem
           F
Pode inventar qualquer versão
                 C9
Que teve traição eu não to nem ai
 Gm
Agora vai cuidar da sua vida
          Bb
Mete a cara na bebida
Não vai ter mais despedida
         F
Essa é a minha decisão
A minha opinião
    C9
Não era isso que você queria

( Gm  Bb  F  C9 )

 Dm           Bb
Tinha escolhido você
         F
Mesmo sem me escolher
     C9
Quis você
 Dm        Bb
Sempre dona da razão
           F
Escolheu a contra mão
      C9          C9  Bb  Am
Bateu de frente com a solidão

 Gm
Agora pode ligar pras amigas
              Bb
Faz intriga com meu nome
Fala que eu não fui homem
           F
Pode inventar qualquer versão
                 C9
Que teve traição eu não to nem ai
 Gm
Agora vai cuidar da sua vida
          Bb
Mete a cara na bebida
Não vai ter mais despedida
         F
Essa é a minha decisão
A minha opinião
    C9
Não era isso que você queria

 Gm
Agora pode ligar pras amigas
              Bb
Faz intriga com meu nome
Fala que eu não fui homem
           F
Pode inventar qualquer versão
                 C9
Que teve traição eu não to nem ai
 Gm
Agora vai cuidar da sua vida
          Bb
Mete a cara na bebida
Não vai ter mais despedida
         F
Essa é a minha decisão
A minha opinião
    C9
Não era isso que você queria

[Final]  Gm  Bb  F  C9

Clipes

Cifra Club Pro

Aproveite o Cifra Club com benefícios exclusivos e sem anúncios
Cifra Club Pro
Aproveite o Cifra Club com benefícios exclusivos e sem anúncios