busca

I Not a Loser

Descendents

Tom: A
Riff 1
E--------------------------------
B--------------------------------
G-6--7--9--7--6--7--9--7--6--4--6
D-6--7--9--7--6--7--9--7--6--4--6
A-4--5--7--5--4--5--7--5--4--2--4
E--------------------------------

Riff 2
E----------------------
B----------------------
G---------7--4--6--9--6
D-4--7----7--4--6--9--6
A-4--7----5--2--4--7--4
E-2--5-----------------

Riff 3
E---------
B---------
G-11--9--6
D-11--9--6
A--9--7--4
E---------

Riff 4
E---------------
B---------------
G-11--6--------9
D-11--6--7--9--9
A--9--4--7--9--7
E--------5--7---

intro:[RIFF1]
[RIFF2]
think that im a loser cause i wear my pants really too low

[RIFF1]
you think that life is really tough

[RIFF2]
im not a loser! thats right

[RIFF1]
cruise down the bulavard wasting mommys gas

[RIFF3]
your-a fucking son of a bitch

[RIFF4]
you suck, mr.buttfuck

Clipes