busca

Jean Is Dead

Descendents

tabbed by B* 
  

Intro- 
G| -----------------|-----------------| 
D| -5-5-5-5-5-5-5-5-|-4-5-4-0-0-0-0-0-| 
A| -----------------|-----------------| 
E| -----------------|-----------------| 
 Play above 3 times then play... 
G| -----------------|-----------------| 
D| -5-5-5-5-5-5-5-5-|-4-5-4-0-0-5-4-2-| 
A| -----------------|-----------------| 
E| -----------------|-----------------| 

Verse-   ("Wake up early, mad at you...") 
G| -----------------|-----------------| 
D| -------------0-2-|-------------0-2-| 
A| -2-2-2-2-2-2-----|-2-2-2-2-2-2-----| 
E| -----------------|-----------------| 

G| -----------------|-----------------| 
D| -------------0-2-|-------------0-2-| 
A| -2-2-2-2-2-2-----|-2-2-2-2-2-2-----| 
E| -----------------|-----------------| 

        (Should've told me, i should've known...) 
G| -----------------|-----------------| 
D| -----------------|-----------------| 
A| -4-4-4-4-4-4-2-2-|-4-4-4-4-4-4-2-2-| 
E| -----------------|-----------------| 

G| -----------------|-----------------| 
D| -4-4-4-4-4-4-2-2-|-4-4-4-4-4-4-2-2-| 
A| -----------------|-----------------| 
E| -----------------|-----------------| 

Pre-chorus-   (Your mother told me last night...") 
G| -----------------|-----------5-4-2-| 
D| -5-5-5-5-5-5-5-5-|-4-5-4-0-0-------| 
A| -----------------|-----------------| 
E| -----------------|-----------------| 
 Play above 3 times then play... 
G| -----------------|-----------------| 
D| -5-5-5-5-5-5-5-5-|-4-5-4-0-0-5-4-2-| 
A| -----------------|-----------------| 
E| -----------------|-----------------| 

Chorus-   ("Now you're gone and I'm alone...") 
G| -----------------|-----------------| 
D| -2-2-2-2-2-2-2-2-|-2-2-2-2-2-2-2-2-| 
A| -----------------|-----------------| 
E| -----------------|-----------------| 

G| -----------------|-----------------| 
D| -5-5-5-5-5-5-5-4-|-0-0-0-0-0-0-0-0-| 
A| -----------------|-----------------| 
E| -----------------|-----------------| 

Outro-   ("Should've told me, should've known...") 
G| -----------------|-----------------| 
D| -----------------|-----------------| 
A| -4-4-4-4-4-4-2-2-|-4-4-4-4-4-4-2-2-| 
E| -----------------|-----------------| 

G| -----------------|-----------------| 
D| -4-4-4-4-4-4-2-2-|-4-4-4-4-2h4-2h4-| 
A| -----------------|-----------------| 
E| -----------------|-----------------| 

G| -----------------| 
D| -2---------------| 
A| -----------------| 
E| -----------------|  

tabbed by B* 
  

Intro- 
G| -----------------|-----------------| 
D| -5-5-5-5-5-5-5-5-|-4-5-4-0-0-0-0-0-| 
A| -----------------|-----------------| 
E| -----------------|-----------------| 
 Play above 3 times then play... 
G| -----------------|-----------------| 
D| -5-5-5-5-5-5-5-5-|-4-5-4-0-0-5-4-2-| 
A| -----------------|-----------------| 
E| -----------------|-----------------| 

Verse-   ("Wake up early, mad at you...") 
G| -----------------|-----------------| 
D| -------------0-2-|-------------0-2-| 
A| -2-2-2-2-2-2-----|-2-2-2-2-2-2-----| 
E| -----------------|-----------------| 

G| -----------------|-----------------| 
D| -------------0-2-|-------------0-2-| 
A| -2-2-2-2-2-2-----|-2-2-2-2-2-2-----| 
E| -----------------|-----------------| 

        (Should've told me, i should've known...) 
G| -----------------|-----------------| 
D| -----------------|-----------------| 
A| -4-4-4-4-4-4-2-2-|-4-4-4-4-4-4-2-2-| 
E| -----------------|-----------------| 

G| -----------------|-----------------| 
D| -4-4-4-4-4-4-2-2-|-4-4-4-4-4-4-2-2-| 
A| -----------------|-----------------| 
E| -----------------|-----------------| 

Pre-chorus-   (Your mother told me last night...") 
G| -----------------|-----------5-4-2-| 
D| -5-5-5-5-5-5-5-5-|-4-5-4-0-0-------| 
A| -----------------|-----------------| 
E| -----------------|-----------------| 
 Play above 3 times then play... 
G| -----------------|-----------------| 
D| -5-5-5-5-5-5-5-5-|-4-5-4-0-0-5-4-2-| 
A| -----------------|-----------------| 
E| -----------------|-----------------| 

Chorus-   ("Now you're gone and I'm alone...") 
G| -----------------|-----------------| 
D| -2-2-2-2-2-2-2-2-|-2-2-2-2-2-2-2-2-| 
A| -----------------|-----------------| 
E| -----------------|-----------------| 

G| -----------------|-----------------| 
D| -5-5-5-5-5-5-5-4-|-0-0-0-0-0-0-0-0-| 
A| -----------------|-----------------| 
E| -----------------|-----------------| 

Outro-   ("Should've told me, should've known...") 
G| -----------------|-----------------| 
D| -----------------|-----------------| 
A| -4-4-4-4-4-4-2-2-|-4-4-4-4-4-4-2-2-| 
E| -----------------|-----------------| 

G| -----------------|-----------------| 
D| -4-4-4-4-4-4-2-2-|-4-4-4-4-2h4-2h4-| 
A| -----------------|-----------------| 
E| -----------------|-----------------| 

G| -----------------| 
D| -2---------------| 
A| -----------------| 
E| -----------------|  

Clipes

Cifra Club Pro

Aproveite o Cifra Club com benefícios exclusivos e sem anúncios
7 dias grátis
Cifra Club Pro
Aproveite o Cifra Club com benefícios exclusivos e sem anúncios
7 dias grátis