busca

Whiskey Breath

DeVotchka

Tom: C
Intro 3x: G  F  Am  F

G                        F
Mass halucination on the ballroom floor
Am                                    F
and an ancient rite of passage on the shit house door
G
you keep stealing all my cigerettes
         F
and your whiskey breath
Am
is drowning out the words you're saying
F
but go ahead, get 'em off your chest
      G                           F
And I feel it in the marrow of my lazy bones
     Am
your on to something better
    F
and there's always someone better

Refrão:
      G    Am  F
Did I drag you down
      G    Am  F
Did I drag you down
             G    Am  F
Don't let me drag you down here to my level
E|---------------------------------|
B|---------------------------------|
G|---------------------------------| (2x)
D|----5-8-7-5--------5-8-7-5-------|
A|------------8-5-7-8-------8-5-7-8|
E|---------------------------------|


that ain't no good
that ain't no good
that ain't no good

( G  F  Am  F )

     G
Well here I go again
             F
you've heard it all before
    Am
but I only caught a glimpse
    F
can I see a little more?
     G
they give it all and give it up
   F
it ain't never enough
            Am                F
when you're deaf and dumb and blind with love
    G                                    F
And I can see down to the bottom of your big blue eyes
Am
You're on to something better
    F
and there's always someone better

      G    Am  F
Did I drag you down
      G    Am  F
Did I drag you down
             G    Am  F
Don't let me drag you down here to my level
E|---------------------------------|
B|---------------------------------|
G|---------------------------------| (2x)
D|----5-8-7-5--------5-8-7-5-------|
A|------------8-5-7-8-------8-5-7-8|
E|---------------------------------|


that ain't no good
that ain't no good
that ain't no good

Clipes