busca

Communique

Dire Straits

Intro (rest for 4 bars) 
|--------|--------|--------|----------|---------|--------|--------| 
|-------5|7-------|--------|--------10|--------5|7-------|--------| 
|--------|-0-----7|--------|------10--|12-------|-0----77|--------| 
|-5------|--------|5-------|----------|---------|--------|5-------| 
 
|----------|---------|--------|--------|--------| 
|--------10|---------|--------|7-------|-----5-7| 
|------10--|12-------|-7----77|----7---|--------| 
|----------|---------|---5----|------5-|--------| 
 
Verse 
|--------------------------------------------------| 
|------------|-------------------------------------| 
|-2--------2-|-----------|-2--------2-0|-----------| 
|----3--5----|-3-------5-|----3-5------|-3-------5-| 
 
Chorus 
|-----------------------|-----------------------|------------|------------| 
|-----------------------|----------------------.|------------|--9--"989"--| 
|-----------------5-----|----------------5-----.|--------2-0-|------------| 
|-3--3-2--2-0--0-2--X-2-|3--3-2--2-0--0-2--X-2--|-3--3-3-----|------------| 
 
Post Chorus 
|--------|--------|--------|----------|---------|--------|---------|---------| 
|-------5|7-------|--------|--------10|---------|--------|--7------|-----5-7-| 
|--------|-0-----7|--------|------10--|12-------|-7------|-7--7----|---------| 
|-5------|--------|5-------|----------|---------|---5----|-----5---|---------| 
 
note that "989" is the funky vibrato 
 
Song structure 
 
Intro 
Verse 1 
Chorus 1 
Post Chorus 
Verse 2 
Chorus 2 
Post Chorus 
Bridge (like intro with some variations, see post Chorus) 
Verse 3 (more rhythmical) 
Chorus 3 
Outro (like intro with variations, repeat and fade)

Clipes