busca

Single Handed Sailor

Dire Straits

Tom: A
Intro 
|---------|----------|---------|----------------------| 
|---------|----------|---------|------------X-5-3-5-3-| 
|-5---3-3-|--5---3-5-|--3----3-|----------------------| 
|---5-----|-5--5-----|-3--3-1--|-11--3--333-----------| 
 
|---------|----------|---------|------------------------| 
|---------|----------|---------|------------3-5-3-------| 
|-5---3-3-|--5---3-5-|--3----3-|------------------5---5-| 
|---5-----|-5--5-----|-3--3-1--|-01--3--333---------5---| 
 
Verse 
|------|------|------|-------|-------|------------|------| 
|------|------|------|-------|-------|------3-5---|------| 
|--5-5-|--3-1-|--3---|---3-5-|---5-3-|--3-1-------|--3-5-| 
|-5----|-3----|-3--1-|-5-----|-5-----|-3--------1-|-5----| 
 
Pre-Chorus 
|------|-------|------|---2------|---------|-------------| 
|------|-------|------|--3-3-2---|---------|-------------| 
|------|--/12--|--\5--|-5------1-|-11-1--3-|-3-33----3-5-| 
|-3--5-|-------|------|----------|---------|--3--3-5-----| 
 
|-------|-------|-------|------|-------|--------|---------| 
|-------|-------|-------|------|-------|--------|---------| 
|---5-3-|---3-1-|---3---|------|--/10--|--------|-----1-3-| 
|-5-----|-3-----|-3---1-|-1--3-|-------|-\6-66--|-1-3-----| 
 
|------|--------|---------|-------|------------|---------| 
|------|--------|---------|-------|------------|---------| 
|--3-4-|----3-5-|---55--3-|-----1-|-11--3-3-33-|-----3-5-| 
|-3----|-3-5----|-5-------|-5-1---|--------3---|-3-5-----| 
 
Chorus 
|---|-------|-------|-------|------|-------|------| 
|---|-------|-------|-------|------|-------|------| 
|-5-|---5-3-|---3-1-|---3---|------|--/10--|--\1--| 
|---|-5-----|-3-----|-3---1-|--\3--|-------|------|

Clipes