Single Handed Sailor

Dire Straits

Tom: G
#1t1#Intro 
#1t2#|---------|----------|---------|----------------------| 
|---------|----------|---------|------------X-5-3-5-3-| 
|-5---3-3-|--5---3-5-|--3----3-|----------------------| 
|---5-----|-5--5-----|-3--3-1--|-11--3--333-----------| #/1t2##/1t1#
 
#2t1##2t2#|---------|----------|---------|------------------------| 
|---------|----------|---------|------------3-5-3-------| 
|-5---3-3-|--5---3-5-|--3----3-|------------------5---5-| 
|---5-----|-5--5-----|-3--3-1--|-01--3--333---------5---| #/2t2##/2t1#
 
#3t1#Verse 
#3t2#|------|------|------|-------|-------|------------|------| 
|------|------|------|-------|-------|------3-5---|------| 
|--5-5-|--3-1-|--3---|---3-5-|---5-3-|--3-1-------|--3-5-| 
|-5----|-3----|-3--1-|-5-----|-5-----|-3--------1-|-5----| #/3t2##/3t1#
 
#4t1#Pre-Chorus 
#4t2#|------|-------|------|---2------|---------|-------------| 
|------|-------|------|--3-3-2---|---------|-------------| 
|------|--/12--|--\5--|-5------1-|-11-1--3-|-3-33----3-5-| 
|-3--5-|-------|------|----------|---------|--3--3-5-----| #/4t2##/4t1#
 
#5t1##5t2#|-------|-------|-------|------|-------|--------|---------| 
|-------|-------|-------|------|-------|--------|---------| 
|---5-3-|---3-1-|---3---|------|--/10--|--------|-----1-3-| 
|-5-----|-3-----|-3---1-|-1--3-|-------|-\6-66--|-1-3-----| #/5t2##/5t1#
 
#6t1##6t2#|------|--------|---------|-------|------------|---------| 
|------|--------|---------|-------|------------|---------| 
|--3-4-|----3-5-|---55--3-|-----1-|-11--3-3-33-|-----3-5-| 
|-3----|-3-5----|-5-------|-5-1---|--------3---|-3-5-----| #/6t2##/6t1#
 
#7t1#Chorus 
#7t2#|---|-------|-------|-------|------|-------|------| 
|---|-------|-------|-------|------|-------|------| 
|-5-|---5-3-|---3-1-|---3---|------|--/10--|--\1--| 
|---|-5-----|-3-----|-3---1-|--\3--|-------|------|#/7t2##/7t1#
Composição: Colaboração e revisão: Felipe Mardegan