busca

À Sombra de Um Vulcão

Fagner

Tom: Em
[Intro] Am  D7  G  Em
        F#m/5-  B7  Em  E7  
        Am  D7  G  B7
       Em  C#°  F#m7(5-)  B7

E|-----10/12--10p8-10/12--|--14-15-----------------------------|
B|------------------------|--------11/12--10b12r10-8--10/12~~--|
G|--/9--------------------|------------------------------------|
D|------------------------|------------------------------------|
A|------------------------|------------------------------------|
E|------------------------|------------------------------------|

E|--------------------|----------------------------------------|
B|--------------------|----------------------------------------|
G|--10b12r10-8--10~~--|--10b12r10-8--10/12~~-------------------|
D|--------------------|----------------------------------------|
A|--------------------|----------------------------------------|
E|--------------------|----------------------------------------|

E|-------------------------------------------------------------|
B|-----------------------8------8-9---8-9-10~~-----------------|
G|----9~~--8-9-11---9-11-----11--------------------------------|
D|--9----------------------------------------------------------|
A|-------------------------------------------------------------|
E|-------------------------------------------------------------|

E|-----14b15r14---------12b14r12~~-----------------------------|
B|--13------------10-12----------------------------------------|
G|-------------------------------------------------------------|
D|-------------------------------------------------------------|
A|-------------------------------------------------------------|
E|-------------------------------------------------------------|

E|-------------------------------------------------------------|
B|--10b11p9-10b11p9-10b11p9-10b11-10-8----7/8\7----------------|
G|-------------------------------------11--------8~~-----------|
D|-------------------------------------------------------------|
A|-------------------------------------------------------------|
E|-------------------------------------------------------------|

      Em                      
Nunca houve uma mulher como você
      F#m7(5-)        B7        Em  D7
Em milhões  de anos luz de solidão
       G                       Am
Minhas noites novamente são azuis
       C7                        Bm7(5-)  E7
Minhas tardes são douradas de verão
   Am             D7
Você é o meu paraíso
     G          B7         Em
A pessoa que eu tanto preciso
       F#m7(5-)      B7
Com loucura e paixão
  Em               G  E7
Eu rezo com o teu olhar
   Am              D7
Eu gozo com a tua voz
      G       B7        Em
Esse amor arrebenta com tudo
C#°
   Parece até que o mundo
                  F#m7(5-)  B7
Não sobrevive sem nós
      Em                     Dm  G7
Nunca ouve uma mulher como você
      C7            B7              Em   D7
Entre tantas que já tive em minhas mãos
       G                         Am  B7
Eu preciso acreditar que sou feliz
        C7                            Bm7(5-)  E7
Mas persigo os teus mistérios como um cão
   Am             D7
E tudo parece tão claro
  G      B7       Em
E tudo parece perfeito
    F#m7(5-)             B7
Mas quando  acordo e me vejo
    Em     B7     G
O espelho diz que não
     Dm        G7          C
Quem sonha contigo molha a cama
        Am          B7                Em
Quem te ama dorme à sombra de um vulcão
     Dm        G7          C
Quem sonha contigo molha a cama
        Am          B7                Em   E7
Quem te ama dorme à sombra de um vulcão


E|-----10/12--12p10\8-10/12--|--14-15-----------------------|
B|---------------------------|--------11/12--12p10\8-10/12--|
G|--/9-----------------------|------------------------------|
D|---------------------------|------------------------------|
A|---------------------------|------------------------------|
E|---------------------------|------------------------------|

E|----------------|----------------------|-------6-6/7~~----|
B|--12p10\8-8/10--|--8p7-7/8--10p8-8/10--|--8h10------------|
G|----------------|----------------------|------------------|
D|----------------|----------------------|------------------|
A|----------------|----------------------|------------------|
E|----------------|----------------------|------------------|

E|-----14b15-14---------12b14-12~~-------|------------------|
B|--13------------10-12------------------|------------------|
G|---------------------------------------|------------------|
D|---------------------------------------|------------------|
A|---------------------------------------|------------------|
E|---------------------------------------|------------------|

C#°
   Parece até que o mundo
                  F#m7(5-)  B7
Não sobrevive sem nós
      Em          B7         Dm  G7
Nunca ouve uma mulher como você
      C             B7              Em   D7
Entre tantas que já tive em minhas mãos
       G                         Am  B7
Eu preciso acreditar que sou feliz
        C7                            Bm7(5-)  E7
Mas persigo os teus mistérios como um cão
   Am             D7
E tudo parece tão claro
  G      B7       Em
E tudo parece perfeito
    F#m7(5-)             B7
Mas quando  acordo e me vejo
    Em     B7     G
O espelho diz que não
     Dm        G7          C
Quem sonha contigo molha a cama
        Am          B7                Em
Quem te ama dorme à sombra de um vulcão
     Dm        G7          C
Quem sonha contigo molha a cama
        Am          B7                Em
Quem te ama dorme à sombra de um vulcão
     Dm        G7          C
Quem sonha contigo molha a cama
    F#m7(5-)         B7               Em
Quem te ama dorme à sombra de um vulcão

Clipes

Cifra Club Pro

Aproveite o Cifra Club com benefícios exclusivos e sem anúncios
Cifra Club Pro
Aproveite o Cifra Club com benefícios exclusivos e sem anúncios