À Sombra de Um Vulcão

Fagner

Am
123
X02210
B7
1234
X21202
Bm7(5-)
1234
X2323X
C
123
X32010
C#°
234
X45353
C7
1234
X3231X
D7
123
XX0212
Dm
123
XX0231
E7
1
0X0010
Em
12
022000
1234
XX2323
F#m/5-
1234
2X421X
F#m7(5-)
1234
2X221X
G
123
320003
G7
34
353433
Tom: G
[Intro] Am  D7  G  Em
        F#m/5-  B7  Em  E7  
        Am  D7  G  B7
       Em  C#°  F#m7(5-)  B7

#1t1##1t2#E|-----10/12--10p8-10/12--|--14-15-----------------------------|
B|------------------------|--------11/12--10b12r10-8--10/12~~--|
G|--/9--------------------|------------------------------------|
D|------------------------|------------------------------------|
A|------------------------|------------------------------------|
E|------------------------|------------------------------------|#/1t2##/1t1#

#2t1##2t2#E|--------------------|----------------------------------------|
B|--------------------|----------------------------------------|
G|--10b12r10-8--10~~--|--10b12r10-8--10/12~~-------------------|
D|--------------------|----------------------------------------|
A|--------------------|----------------------------------------|
E|--------------------|----------------------------------------|#/2t2##/2t1#

#3t1##3t2#E|-------------------------------------------------------------|
B|-----------------------8------8-9---8-9-10~~-----------------|
G|----9~~--8-9-11---9-11-----11--------------------------------|
D|--9----------------------------------------------------------|
A|-------------------------------------------------------------|
E|-------------------------------------------------------------|#/3t2##/3t1#

#4t1##4t2#E|-----14b15r14---------12b14r12~~-----------------------------|
B|--13------------10-12----------------------------------------|
G|-------------------------------------------------------------|
D|-------------------------------------------------------------|
A|-------------------------------------------------------------|
E|-------------------------------------------------------------|#/4t2##/4t1#

#5t1##5t2#E|-------------------------------------------------------------|
B|--10b11p9-10b11p9-10b11p9-10b11-10-8----7/8\7----------------|
G|-------------------------------------11--------8~~-----------|
D|-------------------------------------------------------------|
A|-------------------------------------------------------------|
E|-------------------------------------------------------------|#/5t2##/5t1#

      Em                      
Nunca houve uma mulher como você
      F#m7(5-)        B7        Em  D7
Em milhões  de anos luz de solidão
       G                       Am
Minhas noites novamente são azuis
       C7                        Bm7(5-)  E7
Minhas tardes são douradas de verão
   Am             D7
Você é o meu paraíso
     G          B7         Em
A pessoa que eu tanto preciso
       F#m7(5-)      B7
Com loucura e paixão
  Em               G  E7
Eu rezo com o teu olhar
   Am              D7
Eu gozo com a tua voz
      G       B7        Em
Esse amor arrebenta com tudo
C#°
   Parece até que o mundo
                  F#m7(5-)  B7
Não sobrevive sem nós
      Em                     Dm  G7
Nunca ouve uma mulher como você
      C7            B7              Em   D7
Entre tantas que já tive em minhas mãos
       G                         Am  B7
Eu preciso acreditar que sou feliz
        C7                            Bm7(5-)  E7
Mas persigo os teus mistérios como um cão
   Am             D7
E tudo parece tão claro
  G      B7       Em
E tudo parece perfeito
    F#m7(5-)             B7
Mas quando  acordo e me vejo
    Em     B7     G
O espelho diz que não
     Dm        G7          C
Quem sonha contigo molha a cama
        Am          B7                Em
Quem te ama dorme à sombra de um vulcão
     Dm        G7          C
Quem sonha contigo molha a cama
        Am          B7                Em   E7
Quem te ama dorme à sombra de um vulcão


#6t1##6t2#E|-----10/12--12p10\8-10/12--|--14-15-----------------------|
B|---------------------------|--------11/12--12p10\8-10/12--|
G|--/9-----------------------|------------------------------|
D|---------------------------|------------------------------|
A|---------------------------|------------------------------|
E|---------------------------|------------------------------|#/6t2##/6t1#

#7t1##7t2#E|----------------|----------------------|-------6-6/7~~----|
B|--12p10\8-8/10--|--8p7-7/8--10p8-8/10--|--8h10------------|
G|----------------|----------------------|------------------|
D|----------------|----------------------|------------------|
A|----------------|----------------------|------------------|
E|----------------|----------------------|------------------|#/7t2##/7t1#

#8t1##8t2#E|-----14b15-14---------12b14-12~~-------|------------------|
B|--13------------10-12------------------|------------------|
G|---------------------------------------|------------------|
D|---------------------------------------|------------------|
A|---------------------------------------|------------------|
E|---------------------------------------|------------------|#/8t2##/8t1#

C#°
   Parece até que o mundo
                  F#m7(5-)  B7
Não sobrevive sem nós
      Em          B7         Dm  G7
Nunca ouve uma mulher como você
      C             B7              Em   D7
Entre tantas que já tive em minhas mãos
       G                         Am  B7
Eu preciso acreditar que sou feliz
        C7                            Bm7(5-)  E7
Mas persigo os teus mistérios como um cão
   Am             D7
E tudo parece tão claro
  G      B7       Em
E tudo parece perfeito
    F#m7(5-)             B7
Mas quando  acordo e me vejo
    Em     B7     G
O espelho diz que não
     Dm        G7          C
Quem sonha contigo molha a cama
        Am          B7                Em
Quem te ama dorme à sombra de um vulcão
     Dm        G7          C
Quem sonha contigo molha a cama
        Am          B7                Em
Quem te ama dorme à sombra de um vulcão
     Dm        G7          C
Quem sonha contigo molha a cama
    F#m7(5-)         B7               Em
Quem te ama dorme à sombra de um vulcão
Composição: Colaboração e revisão: Gilson FeitosaJoão CostaAgnello JuniorRenato Nogueira