Vem Sobre Mim

Fernanda Brum

Principal
Am
123
X02210
C
123
X32010
C7+
12
X3200X
C9
34
X35533
Dm
123
XX0231
Dm7
34
X57565
F
234
133211
F7+
1234
1X221X
G
123
320003
G/B
123
X20033
G7/4
34
35353X
Tom: G
#1t1#Intro:
#1t2#E|----------------------------------------------------------------
B|--------------------------------------------3-------------------
G|--------2--------------4--------------5-------5--4--2-----------
D|---2--3---3-------2--3---3-------2--3-----------------5--3--2---
A|----------------------------------------------------------------
E|-1--------------3--------------0--------------------------------#/1t2##/1t1#

#2t1##2t2#E|------------------------------------------------
B|----------------------------------------------3-
G|--------2--------------4--------------5--4--2---
D|---2--3---3-------2--3---3-------2--3-----------
A|------------------------------------------------
E|-1--------------3--------------0----------------#/2t2##/2t1#

#3t1##3t2#E|----------------------------------------------------------------
B|--------------------------------------------3-------------------
G|--------2--------------4--------------5-------5--4--2-----------
D|---2--3---3-------2--3---3-------2--3-----------------5--3--2---
A|----------------------------------------------------------------
E|-1--------------3--------------0--------------------------------#/3t2##/3t1#

#4t1##4t2#E|----------------------------------
B|------------------------------1---
G|--------2--------------4------0---
D|---2--3---3-------2--3---3----2---
A|------------------------------3---
E|-1--------------3-----------------#/4t2##/4t1#

C9
Espírito Santo toma minha mente
Am
Espírito Santo toma o meu coração
F               Dm7
Espírito Santo toma o meu ventre
G7/4       G
Vem sobre mim

C9
Espírito Santo toma minha casa
Am
Espírito Santo toma minha família
F               Dm7
Espírito Santo toma os meus filhos
G7/4        F
Vem sobre mim

Refrão:
C
Eu sou o que a Bíblia diz que eu sou
F7+
Eu tenho o que a Bíblia diz que eu tenho
Dm     Am
Eu vou onde a Bíblia diz que eu vou
G7/4       F ( Dm )
Vem sobre mim
Intro:
#5t1##5t2#E|----------------------------------------------------------------
B|--------------------------------------------3-------------------
G|--------2--------------4--------------5-------5--4--2-----------
D|---2--3---3-------2--3---3-------2--3-----------------5--3--2---
A|----------------------------------------------------------------
E|-1--------------3--------------0--------------------------------#/5t2##/5t1#

#6t1##6t2#E|----------------------------------------
B|-----------------------------------1----
G|--------2--------------------------0----
D|---2--3---3-------5----------------2----
A|---------------------7\5--3p0------3----
E|-1--------------3--------------3--------#/6t2##/6t1#

( C9 Am F Dm7 G7/4 F )

( C9 Am F Dm7 G7/4 F )

refrão segunda vez:
C F7+ Dm Am G7/4 F
C F7+ Dm Am G

Ministração:
F G Am G : F G Am G : F G Am Dm G7/4

Eu sou o que a...
C C7+ F7+ Dm Am G7/4 F G Am G/B
C F7+ Dm Am G7/4 G

#7t1#Final:
#7t2#E|----------------------------------------------------------------
B|--------------------------------------------3-------------------
G|--------2--------------4--------------5-------5--4--2-----------
D|---2--3---3-------2--3---3-------2--3-----------------5--3--2---
A|----------------------------------------------------------------
E|-1--------------3--------------0--------------------------------#/7t2##/7t1#

#8t1##8t2#E|------------------------------7-----7--------8------------------
B|---------------------------------6-----6--5---------------------
G|--------2--------------4----------------------------------------
D|---2--3---3-------2--3---3--------------------------------------
A|----------------------------------------------------------------
E|-1--------------3-----------------------------------------------#/8t2##/8t1#

#9t1##9t2#E|----------------------------------------------------------------
B|--------------------------------------------3-------------------
G|--------2--------------4--------------5-------5--4--2-----------
D|---2--3---3-------2--3---3-------2--3-----------------5--3--2---
A|----------------------------------------------------------------
E|-1--------------3--------------0--------------------------------#/9t2##/9t1#

#10t1##10t2#E|----------------------------------------------------------------
B|-----------------------------------1----------------------------
G|--------2---------4----------------0----------------------------
D|---2--3---3----------7\5-----------2----------------------------
A|--------------------------5p3------3----------------------------
E|-1--------------3--------------3--------------------------------#/10t2##/10t1#
Composição: Fernanda BrumColaboração e revisão: daniel