busca

Vem Sobre Mim

Fernanda Brum

Tom: C
Intro:
E|----------------------------------------------------------------
B|--------------------------------------------3-------------------
G|--------2--------------4--------------5-------5--4--2-----------
D|---2--3---3-------2--3---3-------2--3-----------------5--3--2---
A|----------------------------------------------------------------
E|-1--------------3--------------0--------------------------------

E|------------------------------------------------
B|----------------------------------------------3-
G|--------2--------------4--------------5--4--2---
D|---2--3---3-------2--3---3-------2--3-----------
A|------------------------------------------------
E|-1--------------3--------------0----------------

E|----------------------------------------------------------------
B|--------------------------------------------3-------------------
G|--------2--------------4--------------5-------5--4--2-----------
D|---2--3---3-------2--3---3-------2--3-----------------5--3--2---
A|----------------------------------------------------------------
E|-1--------------3--------------0--------------------------------

E|----------------------------------
B|------------------------------1---
G|--------2--------------4------0---
D|---2--3---3-------2--3---3----2---
A|------------------------------3---
E|-1--------------3-----------------

C9
Espírito Santo toma minha mente
Am
Espírito Santo toma o meu coração
F               Dm7
Espírito Santo toma o meu ventre
G7/4       G
Vem sobre mim

C9
Espírito Santo toma minha casa
Am
Espírito Santo toma minha família
F               Dm7
Espírito Santo toma os meus filhos
G7/4        F
Vem sobre mim

Refrão:
C
Eu sou o que a Bíblia diz que eu sou
F7+
Eu tenho o que a Bíblia diz que eu tenho
Dm     Am
Eu vou onde a Bíblia diz que eu vou
G7/4       F ( Dm )
Vem sobre mim
Intro:
E|----------------------------------------------------------------
B|--------------------------------------------3-------------------
G|--------2--------------4--------------5-------5--4--2-----------
D|---2--3---3-------2--3---3-------2--3-----------------5--3--2---
A|----------------------------------------------------------------
E|-1--------------3--------------0--------------------------------

E|----------------------------------------
B|-----------------------------------1----
G|--------2--------------------------0----
D|---2--3---3-------5----------------2----
A|---------------------7\5--3p0------3----
E|-1--------------3--------------3--------

( C9 Am F Dm7 G7/4 F )

( C9 Am F Dm7 G7/4 F )

refrão segunda vez:
C F7+ Dm Am G7/4 F
C F7+ Dm Am G

Ministração:
F G Am G : F G Am G : F G Am Dm G7/4

Eu sou o que a...
C C7+ F7+ Dm Am G7/4 F G Am G/B
C F7+ Dm Am G7/4 G

Final:
E|----------------------------------------------------------------
B|--------------------------------------------3-------------------
G|--------2--------------4--------------5-------5--4--2-----------
D|---2--3---3-------2--3---3-------2--3-----------------5--3--2---
A|----------------------------------------------------------------
E|-1--------------3--------------0--------------------------------

E|------------------------------7-----7--------8------------------
B|---------------------------------6-----6--5---------------------
G|--------2--------------4----------------------------------------
D|---2--3---3-------2--3---3--------------------------------------
A|----------------------------------------------------------------
E|-1--------------3-----------------------------------------------

E|----------------------------------------------------------------
B|--------------------------------------------3-------------------
G|--------2--------------4--------------5-------5--4--2-----------
D|---2--3---3-------2--3---3-------2--3-----------------5--3--2---
A|----------------------------------------------------------------
E|-1--------------3--------------0--------------------------------

E|----------------------------------------------------------------
B|-----------------------------------1----------------------------
G|--------2---------4----------------0----------------------------
D|---2--3---3----------7\5-----------2----------------------------
A|--------------------------5p3------3----------------------------
E|-1--------------3--------------3--------------------------------

Clipes

Cifra Club Pro

Aproveite o Cifra Club com benefícios exclusivos e sem anúncios
Cifra Club Pro
Aproveite o Cifra Club com benefícios exclusivos e sem anúncios