Se Não For Pra Te Adorar

Fernandinho

A4
123
X02230
A6/C#
34
X42252
A9
12
X02200
A9/B
123
X22200
A9/F#
123
2X2200
D4
123
XX0233
D4/F#
1234
2XX233
D4/G
1234
3XX233
D9
12
XX0230
D9/B
123
X20230
Em7/G
1234
3X243X
G/B
123
X20033
Tom: G
1º Estrofe

                     D9               D4
Se não for pra Te adorar, para que nasci
                      D9/B               A4
Se não for pra Te servir por que estou aqui
A9              D4/G Em7/G       A4           A9     D9 ( D4  D9/B  A4  A9  D4/G Em7/G A4  A9  D9)
Sim eu quero Te adorar, Te adorar, Senhor estou aqui.

Intro: | D9 D4| 2X

2º Estrofe

D9                  D4          D9/B                 A4  A9
Diante do trono Senhor, quero levar minha oferta de amor.
D9/B                  A9/F#           D4/G Em7/G         A4  A9
Diante do trono Senhor, quero levar meu sacrifício de louvor.
D9                  D4          D9/B             A4  A9
As minhas mãos levantar, Tua beleza então contemplar.
D9/B                  A9/B         G/B          A4  A9
Com meus lábios declarar toda a minha adoração.**


#1t1##1t2#E|--------------------------------|
B|--------------------------------|
G|--------------------------------|  (Na 2ª parte, depois **)
D|------------------------5-6-7---|
A|------4-4-5-5-6-6-7-7-7---------|
E|--5-5---------------------------|#/1t2##/1t1#

                    D9               D4
Se não for pra Te adorar, para que nasci
                      D9/B               A4
Se não for pra Te servir por que estou aqui
A9              D4/G Em7/G       A4           A9     D9  2X  (D4 D9/B  A4  A9  D4/F# A4 A9 )
Sim eu quero Te adorar, Te adorar, Senhor estou aqui.


#2t1##2t2#E|--------------------------------------------|
B|--------------------------------------------|
G|--------------------------------------------|
D|---------5--6--7---------7p5---5------------|
A|-5-5-8-8---------5-5-8-8-----7---7p5---5-5--|
E|-------------------------------------7------|#/2t2##/2t1#

#3t1##3t2#E|------------------|
B|------------------|
G|------------------|
D|------------7-5---|
A|-5-5-8-8--8-------|
E|------------------|#/3t2##/3t1#

Volta para 2º Estrofe

RAP ( D9  D4  D9/B  A4  A9  D9/F#  A4  A9)


D4/G  A4   A9   G/B   A6/C#
eoh eoh eoh eoh eoh eoh
D4/G     A4    A9
eoh eoh eoh eoh eoh eoh
           D9
eu quero te adorarrrr
Composição: Fernandinho / Paula TerraColaboração e revisão: israel erlichluiz silvaantonio filhoWallace Petruccie mais 1