busca

Se Não For Pra Te Adorar

Fernandinho

Tom: D
1º Estrofe

                     D9               D4
Se não for pra Te adorar, para que nasci
                      D9/B               A4
Se não for pra Te servir por que estou aqui
A9              D4/G Em7/G       A4           A9     D9 ( D4  D9/B  A4  A9  D4/G Em7/G A4  A9  D9)
Sim eu quero Te adorar, Te adorar, Senhor estou aqui.

Intro: | D9 D4| 2X

2º Estrofe

D9                  D4          D9/B                 A4  A9
Diante do trono Senhor, quero levar minha oferta de amor.
D9/B                  A9/F#           D4/G Em7/G         A4  A9
Diante do trono Senhor, quero levar meu sacrifício de louvor.
D9                  D4          D9/B             A4  A9
As minhas mãos levantar, Tua beleza então contemplar.
D9/B                  A9/B         G/B          A4  A9
Com meus lábios declarar toda a minha adoração.**


E|--------------------------------|
B|--------------------------------|
G|--------------------------------|  (Na 2ª parte, depois **)
D|------------------------5-6-7---|
A|------4-4-5-5-6-6-7-7-7---------|
E|--5-5---------------------------|

                    D9               D4
Se não for pra Te adorar, para que nasci
                      D9/B               A4
Se não for pra Te servir por que estou aqui
A9              D4/G Em7/G       A4           A9     D9  2X  (D4 D9/B  A4  A9  D4/F# A4 A9 )
Sim eu quero Te adorar, Te adorar, Senhor estou aqui.


E|--------------------------------------------|
B|--------------------------------------------|
G|--------------------------------------------|
D|---------5--6--7---------7p5---5------------|
A|-5-5-8-8---------5-5-8-8-----7---7p5---5-5--|
E|-------------------------------------7------|

E|------------------|
B|------------------|
G|------------------|
D|------------7-5---|
A|-5-5-8-8--8-------|
E|------------------|

Volta para 2º Estrofe

RAP ( D9  D4  D9/B  A4  A9  D9/F#  A4  A9)


D4/G  A4   A9   G/B   A6/C#
eoh eoh eoh eoh eoh eoh
D4/G     A4    A9
eoh eoh eoh eoh eoh eoh
           D9
eu quero te adorarrrr

Clipes