Madeira Torta

Goiano e Paranaense

A
123
X02220
B7
1234
X21202
E
123
022100
Tom: G
#1t1#

#1t2#E|-0----------------------------|------------------------|
B|-0----------------------------|------------------------|
G#|-0--------8-7-----7/10-10-10--|-------7-5-----5/8-8-8--|
E|-0--0/7-9-----9-7-------------|-0/5-7-----7-5----------|
B|-0----------------------------|------------------------|#/1t2##/1t1#

#2t1##2t2#E|---------------------------|-------------------------|
B|---------------------------|-------------------------|
G#|-----5-4-3-------1/-3-3-3--|-------7-----------------|
E|---4-------4---------------|-0/7-9---9-7-5-4-1-0-----|
B|-5-----------5-------------|-------------------------|#/2t2##/2t1#
 


 E
 Diz um ditado que uma madeira torta
                               B7
 Morre torta sem ninguém endireitar
 Até invelhese fica sozinha na mata
                                       E
 Qualquer um pensa que só serve pra queimar
   A
 Com essa madeira eu comprei minha vida
                      B7           E
 Mas precisa alguma coisa eu construir 
                                 B7
 Extraviando até embalado nas bebidas
                                   E   B7  E
 Fui me acabando e comecei me destruir

Introdução..

 E
 Pensado bem madeira torta tem valor
                                  B7
 Tem aproveito pra qualquer um enxergar
 Por que existe um maior dos carpinteiros
                                    E
 Qualquer madeira ele consegue endireitar
   A
 E o carpinteiro que eu falo nesse momento
                        B7         E
 é experiente e nele eu tenho muita fé
                                 B7
 Madeira torta ele conserta direitinho
                                 E   B7  E
 É nosso mestre é meu Jesus de Nazaré

Introdução..

  E
 Jesus Cristo é nosso Mestre é nosso Rei
                                 B7
 Glória meu Deus nele eu posso confiar
 É a nossa paz e a nossa luz e a nossa vida
                           E
 É razão de todos nos glorificar
     A
 Eu glorifico o meu senhor hoje cantando
                             B7           E
 Por que o senhor é minha estrada é minha luz
                                     B7
 Seu ministério aqui na terra é uma glória
                                E   B7  E
 É só vitória é a presença de Jesus
Composição: GoianoColaboração e revisão: patrick lopes