busca

Primeiro Brinquedo

João Carreiro e Capataz

Tom: A
(Intro)

D|--5-5-0-0-5---5-5-0-0-5-5--||
A|--5-5-0-0-5---5-5-0-0-5-5--||
F|--5-5-0-6-5---5-5-0-6-5-5--||
D|--5-5-0-7-5---5-5-0-7-5-5--||
A|--5-5-0-0-5---5-5-0-0-5-5--||


(1) O lugar que eu nasci de tão feio dava medo

D|-------------------------------------------0--||
A|-------------------5--5--------------------0--||
F|-5--5--5--5--5--6--5--5--6--5--5--3--5--6--6--||
D|-5--5--5--5--5--7--------7--5--5--4--5--7--7--||
A|-------------------------------------------0--||


(2) A nossa casa ficava debaixo de um arvoredo

D|---------------------------------------------5--||
A|---------------5-5-5-------------5--------5--5--||
F#|-5-5-5-5-5-5-6-5-5-5-6-5-5-5-5-5-5-6 ^ 5--5--5--||
D|-5-5-5-5-5-5-7-------7-5-5-5-5-5---7 ^ 5-----5--||
A|---------------------------------------------5--||


(3) Papai pra ganhar o pão ia pra roça mais cedo

D|---------------------------------------------0-0-0--||
A|---------------------------------------------0-0-0--||
F|-0--0--3--1--1--0--0----0--0--3--1--1--0--0--0-0-0--||
D|-0--0--4--2--2--0--0----0--0--4--2--2--0--0--0-0-0--||
A|---------------------------------------------0-0-0--||

(4) Vou contar o que eu me lembrei, com seis anos eu ganhei...o meu primeiro brinquedo.

D|-------------------------------------------------------------------------------||
A|-7---5----------------------7--7--7--7--7/9--9--9--9---------5-----------------||
F|-6---5---6---5---3---5---6--6--6--6--6--6/8--8--8--8---5--5--5---6---6---5--5--||
D|---------7---5---4---5---7-----------------------------5--5------7---7---5--5--||
A|-------------------------------------------------------------------------------||

(Intro)

D|--5-5-0-0-5---5-5-0-0-5-5--||
A|--5-5-0-0-5---5-5-0-0-5-5--||
F|--5-5-0-6-5---5-5-0-6-5-5--||
D|--5-5-0-7-5---5-5-0-7-5-5--||
A|--5-5-0-0-5---5-5-0-0-5-5--||


(1) O meu pai trouxe da venda um caixote de sabão

D|-------------------------------------------0--||
A|-------------------5--5--------------------0--||
F|-5--5--5--5--5--6--5--5--6--5--5--3--5--6--6--||
D|-5--5--5--5--5--7--------7--5--5--4--5--7--7--||
A|-------------------------------------------0--||


(2) Colocou quatro rodinhas de madeira feito a mão

D|---------------------------------------------5--||
A|---------------5-5-5-------------5--------5--5--||
F#|-5-5-5-5-5-5-6-5-5-5-6-5-5-5-5-5-5-6 ^ 5--5--5--||
D|-5-5-5-5-5-5-7-------7-5-5-5-5-5---7 ^ 5-----5--||
A|---------------------------------------------5--||

(3) Fez um volante de arco imitando a direção

D|---------------------------------------------0-0-0--||
A|---------------------------------------------0-0-0--||
F|-0--0--3--1--1--0--0----0--0--3--1--1--0--0--0-0-0--||
D|-0--0--4--2--2--0--0----0--0--4--2--2--0--0--0-0-0--||
A|---------------------------------------------0-0-0--||

(4) Ficou bonito o carrinho, fiquei falando sozinho com aquele presentão.

D|-------------------------------------------------------------------------------||
A|-7---5----------------------7--7--7--7--7/9--9--9--9---------5-----------------||
F|-6---5---6---5---3---5---6--6--6--6--6--6/8--8--8--8---5--5--5---6---6---5--5--||
D|---------7---5---4---5---7-----------------------------5--5------7---7---5--5--||
A|-------------------------------------------------------------------------------||


(Intro)

D|--5-5-0-0-5---5-5-0-0-5-5--||
A|--5-5-0-0-5---5-5-0-0-5-5--||
F|--5-5-0-6-5---5-5-0-6-5-5--||
D|--5-5-0-7-5---5-5-0-7-5-5--||
A|--5-5-0-0-5---5-5-0-0-5-5--||

(1) Eu soltava ele lá em cima onde a estrada terminava

D|-------------------------------------------0--||
A|-------------------5--5--------------------0--||
F|-5--5--5--5--5--6--5--5--6--5--5--3--5--6--6--||
D|-5--5--5--5--5--7--------7--5--5--4--5--7--7--||
A|-------------------------------------------0--||


(2) E pelo os trilhos do pasto meu carro desimbestava

D|---------------------------------------------5--||
A|---------------5-5-5-------------5--------5--5--||
F#|-5-5-5-5-5-5-6-5-5-5-6-5-5-5-5-5-5-6 ^ 5--5--5--||
D|-5-5-5-5-5-5-7-------7-5-5-5-5-5---7 ^ 5-----5--||
A|---------------------------------------------5--||

(3) E eu vinha pilotando as vezes me atrapalhava

D|---------------------------------------------0-0-0--||
A|---------------------------------------------0-0-0--||
F|-0--0--3--1--1--0--0----0--0--3--1--1--0--0--0-0-0--||
D|-0--0--4--2--2--0--0----0--0--4--2--2--0--0--0-0-0--||
A|---------------------------------------------0-0-0--||

(4) Desterçando do caminho, o danado do carrinho um outro rumo tomava.

D|-------------------------------------------------------------------------------||
A|-7---5----------------------7--7--7--7--7/9--9--9--9---------5-----------------||
F|-6---5---6---5---3---5---6--6--6--6--6--6/8--8--8--8---5--5--5---6---6---5--5--||
D|---------7---5---4---5---7-----------------------------5--5------7---7---5--5--||
A|-------------------------------------------------------------------------------||

(Intro) Aumenta 1 Tom: B

D|--5-5-5-5-0-5---7-7-7-0-7-7--||
A|--5-5-5-5-0-5---7-7-7-0-7-7--||
F|--5-5-5-5-6-5---7-7-7-8-7-7--||
D|--5-5-5-5-7-5---7-7-7-9-7-7--||
A|--5-5-5-5-0-5---7-7-7-0-7-7--||


(1 Tom Acima)

Um presente mais bonito por que é que eu não ganhava?

D|------------------------------------------------------2--||
A|-----------7--------7---------------------------------2--||
F|-7--7--7--7---8----7--7---7---8---8---8---7---5---2--2--||
D|--7--7--7------9-------7---7---9---9---9---7---6---2--2--||
A|------------------------------------------------------2--||

Essa história de mamãe que pra mim sempre falava que

D|------------------------------------------------------||
A|--9---7------------------------7---7------------------||
F|-8---7--8--7--5--7--8---7--7--7---7--8--7---5--2--2--||
D|---------9--7--6--7--9---7--7---------9--7---6--2--2--||
A|------------------------------------------------------||

Nas estradas de terra Papai Noel não passava.

D|--------------------------------------------||
A|--------------9--9--9--9--7-----------------||
F|-2--2--2--2--8--8--8--8--7--8--7--7--8--7--||
D|--2--2--2--2-----------------9--7--7--9--7--||
A|--------------------------------------------||


(Intro) Diminui 1 Tom: A

D|--7-7-7-7-0-7---5-5-5-0-5-5--||
A|--7-7-7-7-0-7---5-5-5-0-5-5--||
F|--7-7-7-7-8-7---5-5-5-6-5-5--||
D|--7-7-7-7-9-7---5-5-5-7-5-5--||
A|--7-7-7-7-0-7---5-5-5-0-5-5--||

(1) Mas esse carrinho simples que papai fez de madeira

D|-------------------------------------------0--||
A|-------------------5--5--------------------0--||
F|-5--5--5--5--5--6--5--5--6--5--5--3--5--6--6--||
D|-5--5--5--5--5--7--------7--5--5--4--5--7--7--||
A|-------------------------------------------0--||

(2) No trilho da minha vida vai rodar a vida inteira

D|---------------------------------------------5--||
A|---------------5-5-5-------------5--------5--5--||
F#|-5-5-5-5-5-5-6-5-5-5-6-5-5-5-5-5-5-6 ^ 5--5--5--||
D|-5-5-5-5-5-5-7-------7-5-5-5-5-5---7 ^ 5-----5--||
A|---------------------------------------------5--||

(3) Se a gente não for piloto vai rolar na ribanceira

D|---------------------------------------------0-0-0--||
A|---------------------------------------------0-0-0--||
F|-0--0--3--1--1--0--0----0--0--3--1--1--0--0--0-0-0--||
D|-0--0--4--2--2--0--0----0--0--4--2--2--0--0--0-0-0--||
A|---------------------------------------------0-0-0--||

(4) Porque o carrinho da vida é feito de dor doida e não é de brincadeira.

D|-------------------------------------------------------------------------------||
A|-7---5----------------------7--7--7--7--7/9--9--9--9---------5-----------------||
F|-6---5---6---5---3---5---6--6--6--6--6--6/8--8--8--8---5--5--5---6---6---5--5--||
D|---------7---5---4---5---7-----------------------------5--5------7---7---5--5--||
A|-------------------------------------------------------------------------------||


(Intro)

D|--5-5-0-0-5---5-5-0-0-5-5--||
A|--5-5-0-0-5---5-5-0-0-5-5--||
F|--5-5-0-6-5---5-5-0-6-5-5--||
D|--5-5-0-7-5---5-5-0-7-5-5--||
A|--5-5-0-0-5---5-5-0-0-5-5--||

Clipes

Cifra Club Pro

Aproveite o Cifra Club com benefícios exclusivos e sem anúncios
Cifra Club Pro
Aproveite o Cifra Club com benefícios exclusivos e sem anúncios