Primeiro Brinquedo

João Carreiro e Capataz

Tom: G
(Intro)

#1t1##1t2#D|--5-5-0-0-5---5-5-0-0-5-5--||
A|--5-5-0-0-5---5-5-0-0-5-5--||
F|--5-5-0-6-5---5-5-0-6-5-5--||
D|--5-5-0-7-5---5-5-0-7-5-5--||
A|--5-5-0-0-5---5-5-0-0-5-5--||#/1t2##/1t1#


(1) O lugar que eu nasci de tão feio dava medo

#2t1##2t2#D|-------------------------------------------0--||
A|-------------------5--5--------------------0--||
F|-5--5--5--5--5--6--5--5--6--5--5--3--5--6--6--||
D|-5--5--5--5--5--7--------7--5--5--4--5--7--7--||
A|-------------------------------------------0--||#/2t2##/2t1#


(2) A nossa casa ficava debaixo de um arvoredo

#3t1##3t2#D|---------------------------------------------5--||
A|---------------5-5-5-------------5--------5--5--||
F#|-5-5-5-5-5-5-6-5-5-5-6-5-5-5-5-5-5-6 ^ 5--5--5--||
D|-5-5-5-5-5-5-7-------7-5-5-5-5-5---7 ^ 5-----5--||
A|---------------------------------------------5--||#/3t2##/3t1#


(3) Papai pra ganhar o pão ia pra roça mais cedo

#4t1##4t2#D|---------------------------------------------0-0-0--||
A|---------------------------------------------0-0-0--||
F|-0--0--3--1--1--0--0----0--0--3--1--1--0--0--0-0-0--||
D|-0--0--4--2--2--0--0----0--0--4--2--2--0--0--0-0-0--||
A|---------------------------------------------0-0-0--||#/4t2##/4t1#

(4) Vou contar o que eu me lembrei, com seis anos eu ganhei...o meu primeiro brinquedo.

#5t1##5t2#D|-------------------------------------------------------------------------------||
A|-7---5----------------------7--7--7--7--7/9--9--9--9---------5-----------------||
F|-6---5---6---5---3---5---6--6--6--6--6--6/8--8--8--8---5--5--5---6---6---5--5--||
D|---------7---5---4---5---7-----------------------------5--5------7---7---5--5--||
A|-------------------------------------------------------------------------------||#/5t2##/5t1#

(Intro)

#6t1##6t2#D|--5-5-0-0-5---5-5-0-0-5-5--||
A|--5-5-0-0-5---5-5-0-0-5-5--||
F|--5-5-0-6-5---5-5-0-6-5-5--||
D|--5-5-0-7-5---5-5-0-7-5-5--||
A|--5-5-0-0-5---5-5-0-0-5-5--||#/6t2##/6t1#


(1) O meu pai trouxe da venda um caixote de sabão

#7t1##7t2#D|-------------------------------------------0--||
A|-------------------5--5--------------------0--||
F|-5--5--5--5--5--6--5--5--6--5--5--3--5--6--6--||
D|-5--5--5--5--5--7--------7--5--5--4--5--7--7--||
A|-------------------------------------------0--||#/7t2##/7t1#


(2) Colocou quatro rodinhas de madeira feito a mão

#8t1##8t2#D|---------------------------------------------5--||
A|---------------5-5-5-------------5--------5--5--||
F#|-5-5-5-5-5-5-6-5-5-5-6-5-5-5-5-5-5-6 ^ 5--5--5--||
D|-5-5-5-5-5-5-7-------7-5-5-5-5-5---7 ^ 5-----5--||
A|---------------------------------------------5--||#/8t2##/8t1#

(3) Fez um volante de arco imitando a direção

#9t1##9t2#D|---------------------------------------------0-0-0--||
A|---------------------------------------------0-0-0--||
F|-0--0--3--1--1--0--0----0--0--3--1--1--0--0--0-0-0--||
D|-0--0--4--2--2--0--0----0--0--4--2--2--0--0--0-0-0--||
A|---------------------------------------------0-0-0--||#/9t2##/9t1#

(4) Ficou bonito o carrinho, fiquei falando sozinho com aquele presentão.

#10t1##10t2#D|-------------------------------------------------------------------------------||
A|-7---5----------------------7--7--7--7--7/9--9--9--9---------5-----------------||
F|-6---5---6---5---3---5---6--6--6--6--6--6/8--8--8--8---5--5--5---6---6---5--5--||
D|---------7---5---4---5---7-----------------------------5--5------7---7---5--5--||
A|-------------------------------------------------------------------------------||#/10t2##/10t1#


(Intro)

#11t1##11t2#D|--5-5-0-0-5---5-5-0-0-5-5--||
A|--5-5-0-0-5---5-5-0-0-5-5--||
F|--5-5-0-6-5---5-5-0-6-5-5--||
D|--5-5-0-7-5---5-5-0-7-5-5--||
A|--5-5-0-0-5---5-5-0-0-5-5--||#/11t2##/11t1#

(1) Eu soltava ele lá em cima onde a estrada terminava

#12t1##12t2#D|-------------------------------------------0--||
A|-------------------5--5--------------------0--||
F|-5--5--5--5--5--6--5--5--6--5--5--3--5--6--6--||
D|-5--5--5--5--5--7--------7--5--5--4--5--7--7--||
A|-------------------------------------------0--||#/12t2##/12t1#


(2) E pelo os trilhos do pasto meu carro desimbestava

#13t1##13t2#D|---------------------------------------------5--||
A|---------------5-5-5-------------5--------5--5--||
F#|-5-5-5-5-5-5-6-5-5-5-6-5-5-5-5-5-5-6 ^ 5--5--5--||
D|-5-5-5-5-5-5-7-------7-5-5-5-5-5---7 ^ 5-----5--||
A|---------------------------------------------5--||#/13t2##/13t1#

(3) E eu vinha pilotando as vezes me atrapalhava

#14t1##14t2#D|---------------------------------------------0-0-0--||
A|---------------------------------------------0-0-0--||
F|-0--0--3--1--1--0--0----0--0--3--1--1--0--0--0-0-0--||
D|-0--0--4--2--2--0--0----0--0--4--2--2--0--0--0-0-0--||
A|---------------------------------------------0-0-0--||#/14t2##/14t1#

(4) Desterçando do caminho, o danado do carrinho um outro rumo tomava.

#15t1##15t2#D|-------------------------------------------------------------------------------||
A|-7---5----------------------7--7--7--7--7/9--9--9--9---------5-----------------||
F|-6---5---6---5---3---5---6--6--6--6--6--6/8--8--8--8---5--5--5---6---6---5--5--||
D|---------7---5---4---5---7-----------------------------5--5------7---7---5--5--||
A|-------------------------------------------------------------------------------||#/15t2##/15t1#

(Intro) Aumenta 1 Tom: B

#16t1##16t2#D|--5-5-5-5-0-5---7-7-7-0-7-7--||
A|--5-5-5-5-0-5---7-7-7-0-7-7--||
F|--5-5-5-5-6-5---7-7-7-8-7-7--||
D|--5-5-5-5-7-5---7-7-7-9-7-7--||
A|--5-5-5-5-0-5---7-7-7-0-7-7--||#/16t2##/16t1#


(1 Tom Acima)

Um presente mais bonito por que é que eu não ganhava?

#17t1##17t2#D|------------------------------------------------------2--||
A|-----------7--------7---------------------------------2--||
F|-7--7--7--7---8----7--7---7---8---8---8---7---5---2--2--||
D|--7--7--7------9-------7---7---9---9---9---7---6---2--2--||
A|------------------------------------------------------2--||#/17t2##/17t1#

Essa história de mamãe que pra mim sempre falava que

#18t1##18t2#D|------------------------------------------------------||
A|--9---7------------------------7---7------------------||
F|-8---7--8--7--5--7--8---7--7--7---7--8--7---5--2--2--||
D|---------9--7--6--7--9---7--7---------9--7---6--2--2--||
A|------------------------------------------------------||#/18t2##/18t1#

Nas estradas de terra Papai Noel não passava.

#19t1##19t2#D|--------------------------------------------||
A|--------------9--9--9--9--7-----------------||
F|-2--2--2--2--8--8--8--8--7--8--7--7--8--7--||
D|--2--2--2--2-----------------9--7--7--9--7--||
A|--------------------------------------------||#/19t2##/19t1#


(Intro) Diminui 1 Tom: A

#20t1##20t2#D|--7-7-7-7-0-7---5-5-5-0-5-5--||
A|--7-7-7-7-0-7---5-5-5-0-5-5--||
F|--7-7-7-7-8-7---5-5-5-6-5-5--||
D|--7-7-7-7-9-7---5-5-5-7-5-5--||
A|--7-7-7-7-0-7---5-5-5-0-5-5--||#/20t2##/20t1#

(1) Mas esse carrinho simples que papai fez de madeira

#21t1##21t2#D|-------------------------------------------0--||
A|-------------------5--5--------------------0--||
F|-5--5--5--5--5--6--5--5--6--5--5--3--5--6--6--||
D|-5--5--5--5--5--7--------7--5--5--4--5--7--7--||
A|-------------------------------------------0--||#/21t2##/21t1#

(2) No trilho da minha vida vai rodar a vida inteira

#22t1##22t2#D|---------------------------------------------5--||
A|---------------5-5-5-------------5--------5--5--||
F#|-5-5-5-5-5-5-6-5-5-5-6-5-5-5-5-5-5-6 ^ 5--5--5--||
D|-5-5-5-5-5-5-7-------7-5-5-5-5-5---7 ^ 5-----5--||
A|---------------------------------------------5--||#/22t2##/22t1#

(3) Se a gente não for piloto vai rolar na ribanceira

#23t1##23t2#D|---------------------------------------------0-0-0--||
A|---------------------------------------------0-0-0--||
F|-0--0--3--1--1--0--0----0--0--3--1--1--0--0--0-0-0--||
D|-0--0--4--2--2--0--0----0--0--4--2--2--0--0--0-0-0--||
A|---------------------------------------------0-0-0--||#/23t2##/23t1#

(4) Porque o carrinho da vida é feito de dor doida e não é de brincadeira.

#24t1##24t2#D|-------------------------------------------------------------------------------||
A|-7---5----------------------7--7--7--7--7/9--9--9--9---------5-----------------||
F|-6---5---6---5---3---5---6--6--6--6--6--6/8--8--8--8---5--5--5---6---6---5--5--||
D|---------7---5---4---5---7-----------------------------5--5------7---7---5--5--||
A|-------------------------------------------------------------------------------||#/24t2##/24t1#


(Intro)

#25t1##25t2#D|--5-5-0-0-5---5-5-0-0-5-5--||
A|--5-5-0-0-5---5-5-0-0-5-5--||
F|--5-5-0-6-5---5-5-0-6-5-5--||
D|--5-5-0-7-5---5-5-0-7-5-5--||
A|--5-5-0-0-5---5-5-0-0-5-5--||#/25t2##/25t1#
Composição: João CarreiroColaboração e revisão: Fernando Oton