busca

Cabeça de Bagre II

Mamonas Assassinas

Tom: G
(intro sem distorção)
E|------------------------------------------------------------
B|------------------------------------------------------------
G|------------------------------------------------------------
D|-----0-------5-----0-------------0--------5-----0-----------
A|---2-------7-----2-----5---3---2--------7-----2---2-2-2-1---
E|-0-------0-----0-----0---0---0--------0-----0-------------0-

(parte 1)
E|----------------------------------
B|-8-8--8-8-8--8-8-8--8-------------
G|-6-6--6-6-6--6-6-6--6------------- (12x)
D|-7-7--7-7-7--7-7-7--7-------------
A|----------------------------------
E|----------------------7-7-7-7-6-0-

(parte 2)
E|--------------------------------------
B|-10-10--10-10-10--10-10-10--10-10---8-
G|--8--8---8--8--8---8--8--8---8--8---6-  (5x)
D|--9--9---9--9--9---9--9--9---9--9---7-
A|--------------------------------------
E|--------------------------------------

(repete parte 1 e 2)

(solo 1)
E|--------5-9-7-5------------|----------------------------------|----9-12-9-----9-12-99999999/0-
B|------5---------7-4h5--4h5-|-10-10--10-10-10--10-10-10--10-10-|--10---------10----------------
G|----6----------------------|--8--8---8--8--8---8--8--8---8--8-|-9----------9------------------
D|-7-------------------------|--9--9---9--9--9---9--9--9---9--9-|-------------------------------
A|---------------------------|----------------------------------|-------------------------------
E|---------------------------|----------------------------------|-------------------------------

(solo 2)
         HA          HA       HA
E|-------------------------------|----------------------------------------------------------------
B|-------------------------------|----17p12h15p12h15h17p12h15p12h15-14p10h12p10h12h14p10h12p10h10-
G|-----2-4-4b5-2---------------2-|---12-----------------------------------------------------------
D|-2-4-----------4-2-4-----2-4---|--12------------------------------------------------------------
A|---------------------2-4-------|-12-------------------------------------------------------------
E|-(nessa parte voçe improvisa)--|----------------------------------------------------------------

E|----------------------------------------------------
B|-11p7h9p7h9h11p7h9p7h9h11-9p5h7p5h7h9p5h7p5h7h9-----
G|------------------------------------------------7~~-
D|----------------------------------------------------
A|----------------------------------------------------
E|----------------------------------------------------

(repete parte 2)

(parte 3)
E|------------------------------|
B|-13-13-11--13-13-11--13-13-11-|
G|-11-11--9--11-11--9--11-11--9-|
D|-12-12-10--12-12-10--12-12-10-|
A|------------------------------|
E|------------------------------|

Clipes