busca

Tempo

Ministério Morada

intro

g|----------------------------------------------------------------------------------------------------------------------------|
d|-------------------------------------------------------------------------------------------------------------/--------------|
a|------7-7-7-7-7-7-7-7---4-4-4-4-4-4-4-4-4---7-7-7-7-7-7-7-7---4-4-4-4----6-6-6-6-------------------|
e|----------------------------------------------------------------------------------------------------------------------\-----|


Entra o baixo...

g|--------------------------------------------------------------------------------|
d|--------------------------------------------------------------------------------|
a|--------------------------------------------------------------------------------|
e|----------------0---2----------------------------------------------------------|


Tempo de chorar

g|-----------------------------------------------------------------------------------------------------------------------------|
d|-----------------666-4--------666-4------------------------------------------------------------------------------------|
a|--------------------------6--------------6-44---------------4-6-7---------766-----------------------------------------|
e|-----------------------------------------------------------------------7-0--7-----------44------------------------7------|


Sempre é tempo de adorar..

g|-----------------------------------------------------------------------------------------------------------------------------|
d|-----------------------------------------------------------------------------------------------------------------------------|
a|-------4----4----4----4-----6----6----6----6-----7----7----7----7-----9-9-9-9-9-9-------------------------------|
e|-----------------------------------------------------------------------------------------------------------------------------|

Então eu vou cantar... (refrão)

g|------------------9-8-----------------------------------------------------------------------------------------------------|
d|-----------------------11--------------------------------------------------------------------------------------------------|
a|--------------------------------11-----11--------9--9--------6-7-7--------------676---------------------------------|
e|-------------------------------------------11--11------9-------------7/-------47-------74----------------------------|

g|----------------------------------------------------------------------------------------------------------------------------|
d|----------------------9--------11/16---------------------------9--------11---11h13--9h11------------------------|
a|-------------9h11----11-9----------------------------9h11----11-9-------------------------------------------------|
e|----------------------------------------------------------------------------------------------------------------------------|

Clipes

Cifra Club Pro

Aproveite o Cifra Club com benefícios exclusivos e sem anúncios
Cifra Club Pro
Aproveite o Cifra Club com benefícios exclusivos e sem anúncios