10 Things I Hate About You

Mxpx

Tom: G

i dont know if it's the real name but i found it like this.
hope you like my tab

#1t1##1t2#|---------------------------------------------------|
|---------------------------------------------------|
|----77-66-77----77-66-77-----77-66-77-----77-66-77-| x2
|-------------55-----------77-----------55----------|
|-55------------------------------------------------|
|---------------------------------------------------|#/1t2##/1t1#

then

#2t1##2t2#|----|
|----|
|-7~-|
|-7~-|
|-5~-|
|----|#/2t2##/2t1#

#3t1#intro                           
#3t2#|------------------------|        |----|
|------------------------|        |----|
|-7777-------------------|        |-7~-|  let it ring 'till the 2nd part
|-7777-4444-33xx-3333-55-| x2     |-7~-|   of the verse
|-5555-4444-33xx-3333-55-|        |-5~-|
|------2222-55xx-5555-77-|        |----|#/3t2##/3t1#

2nd part

#4t1##4t2#|----------------|
|----------------|
|---7---xx-7-----|
|--7-7--xx-7-x16-|
|-------xx-5-----|
|----------------|#/4t2##/4t1#

repeat the intro and the verse

the chorus is exactly the same as the intro

then just play something like this before the verse

#5t1##5t2#|------|
|------|
|---7--|
|-/7-7-|
|------|
|------|#/5t2##/5t1#

#6t1#the outro is pretty simple 
#6t2#|--------------------------------|
|--------------------------------|
|---7-7--------------------------|
|--7-7-7----4-4-----5-5-----7-7--|x2
|-5--------4-4-4---5-5-5---7-7-7-|
|---------2-------3-------5------|#/6t2##/6t1#


#7t1##7t2#|-------------------------------------|
|-------------------------------------|
|-xx-7--------------------------------|
|-xx-7-x4--xx-4-----xx-5-----xx-7-----|
|-xx-5-----xx-4-x4--xx-5-x4--xx-7-x4--|
|----------xx-2-----xx-3-----xx-5-----|#/7t2##/7t1#



and also if you dont have a trumpet you can play it with your guitar

#8t1##8t2#|--------------------|--------------|
|--------------------|--------------|
|--99-7-12-10-9-7-x3-|-99-7-5--5-7--| x4
|--------------------|-------5------|
|--------------------|--------------|
|--------------------|--------------|#/8t2##/8t1#

this is all the song any mistakes you know my mail *
bye
Composição: Adam Clayton / Ben Raleigh / Bobby Dall / Bret Michaels / C.C. DeVille / Charlotte Caffey / Dave Alvin / David Mook / David Shulthise / Dean Sabatino / Dr. David Evans / Ellen Shipley / Frederick Mercury / Gérard Rinaldi / Jake Long / Jane Wiedlin / Joe Strummer / Joey Ramone / Joseph Gerano / Kohmoto Hiroto / Laurence Mullen / Marty Wilde / Mick Jones / MxPx / Paul David Hewson / Peter Schilling / Rick Nowels / Ricki Wilde / Rikki Rockett / Steve Soto / Tom Petty / Tony Lombardo / ValentineColaboração e revisão: