Brokenhearted

Mxpx

Tom: G
#1t1#Intro/Verse 
#1t2#|------------------------------------------------|
|------------------------------------------------|
|--55555555--------------------------------------|
|--55555555--22222222--33333333-----6666---------| x2
|--33333333--22222222--33333333-----6666---------|
|------------00000000--11111111-----4444---------|#/1t2##/1t1#
pm.............................

#2t1#Prechorus
#2t2#|------------------------------------------------|
|------------------------------------------------|
|--5555------7777-------55555-xx-xx--------------|
|--5555-7777-7777-33-55-55555-xx-xx--------------|
|--3333-7777-5555-33-55-33333-xx-xx--------------|
|-------5555------11-33--------------------------|#/2t2##/2t1#

#3t1#Chorus
#3t2#|------------------------------------------------|
|------------------------------------------------|
|-------5555-----------------5555----------------|
|--3333-5555-5555-7777--3333-5555-5-xx-xx-55555--| x2
|--3333-3333-5555-7777--3333-3333-5-xx-xx-55555--|
|--1111------3333-5555--1111------3-xx-xx-33333--|#/3t2##/3t1#

#4t1#Bridge
#4t2#|-----------------------------------|
|-----------------------------------|
|-5~--------------------------------|
|-5~--------------------66666-------|
|-3~--------------------66666-------|
|-----------------------44444-------|#/4t2##/4t1#

#5t1#Verse
#5t2#|------------------------------------------------|
|------------------------------------------------|
|--55555555--------------------------------------|
|--55555555--22222222--33333333-----6666---------| x2
|--33333333--22222222--33333333-----6666---------|
|------------00000000--11111111-----4444---------|#/5t2##/5t1#

#6t1#Outro
#6t2#|------------------------------------------------|
|------------------------------------------------|
|--5555------7777-------5555------7777-----------|
|--5555-7777-7777-33-55-5555-7777-7777-33-55-----|
|--3333-7777-5555-33-55-3333-7777-5555-33-55-----|
|-------5555------11-33------5555------11-33-----|#/6t2##/6t1#

#7t1##7t2#|------------------------------------------------|
|------------------------------------------------|
|--5555------------------------------------------|
|--5555-2222-3333--5555--------------------------| x4
|--3333-2222-3333--5555--------------------------|
|-------0000-1111--3333--------------------------|#/7t2##/7t1#

#8t1##8t2#|----------------------|
|----------------------|
|--55555---------------|
|--55555---------------|
|--33333---------------|
|----------------------|#/8t2##/8t1#
Composição: Colaboração e revisão: Paulo Jaffet