Cold Streets

Mxpx

Tom: G
ok well this is my first tab soo ya...hope it doesn't suck

#1t1#intro 0:00
#1t2#e|-----------|
b|-----------|
g|-------5---|
d|-7-5-7-5-5-|
a|-7-5-7-3-5-|
e|-5-3-5---3-|#/1t2##/1t1#

#2t1#1st solo 0:03
#2t2#e|--------------------------------------------------------------|
b|-6b----8b-8b-8b-8b-8b--8h10-12-8h10-12-8h10-12-14b-16b-14b-13b|
g|--------------------------------------------------------------|
d|--------------------------------------------------------------|
a|--------------------------------------------------------------|
e|--------------------------------------------------------------|#/2t2##/2t1#

#3t1#verse 0:14
#3t2#e|----------------------|
b|----------------------|
g|----------------------|
d|-7777-2222-4444-77-55-|  x3  
a|-7777-2222-4444-77-55-|
e|-5555-0000-2222-55-33-|#/3t2##/3t1#

#4t1#ooooh oooh oooh oohh... 0:27                     PM x10
#4t2#e|---------------------|                        |---|
b|---------------------|                        |---|
g|-5555-7777-----------|                        |-5-|
d|-5555-7777-7777-5555-|    x2 then to end it...|-5-|
a|-3333-5555-7777-5555-|                        |-3-|
e|-----------5555-3333-|                        |---|#/4t2##/4t1#

#5t1#chorus...cause i dont feel so alive... 0:37
#5t2#e|-------------------------|           |--------|
b|-------------------------|           |-8-10-8-|
g|-5-----------------------|  guitar 2=|--------|
d|-5-----5-----7-----3-----|           |--------|
a|-3-x14-5-x14-7-x14-3-x14-|           |--------|
e|-------3-----5-----1-----|           |--------|#/5t2##/5t1#

#6t1#2nd solo 0:50
#6t2#e|---------------------------------------------------------------|
b|-\10b-10b-10b-12b-12b--8h10-12-8h10-12-8h10-12-14b-16b-14b-13b-|
g|---------------------------------------------------------------|
d|---------------------------------------------------------------|
a|---------------------------------------------------------------|
e|---------------------------------------------------------------|#/6t2##/6t1#

#7t1##7t2#-verse x6 0:56
-ooh part x2 1:10#/7t2##/7t1#
-chorus x2 1:25

#8t1#3rd solo 1:50 
#8t2#e|------------------------------------------8-------------------------|
b|-\101010-8-10b-8-10-12-13bb-12-10---101010---10b-8-10-12-13bb-12-10-|
g|--------------------------------------------------------------------|
d|--------------------------------------------------------------------|
a|--------------------------------------------------------------------|
e|--------------------------------------------------------------------|#/8t2##/8t1#

#9t1#3rd solo cont...
#9t2#e|-----------------------------------------|
b|-101010-8-10b-8-10-12-13bb-12-10-6b-8-6b-|
g|-----------------------------------------|
d|-----------------------------------------|
a|-----------------------------------------|
e|-----------------------------------------|#/9t2##/9t1#

verse with effect thing x4 and its played during the "oohs" also 2:03
chorus x2 2:18

#10t1#outro 2:43
#10t2#e|-------|
b|-------|
g|-------|
d|-7-5-7-|
a|-7-5-7-|
e|-5-3-5-|#/10t2##/10t1#
Composição: Colaboração e revisão: