busca

Dead End

Mxpx

Tom: D
Intro 2x
G|-------------------------------
D|-------------------------------
A|-0-00-7-77-5-55-8-88-55-77-----
E|-------------------------------

G|-------------------------------
D|-------------------------------
A|-0-00-7-77-10-1010-8-88-55-77--
E|-------------------------------

G|-------------------------------
D|-------------------------------
A|-0-00-7-77-5-55-8-88-55-77-----
E|-------------------------------

G|-------------------------------
D|-------------------------------
A|-0-00-7-77-5-55-3-33-22-33-----
E|-------------------------------

G|-------------------------------
D|-------------------------------
A|--0~-00-33-55-22-0~------------
E|-------------------------------

G|-------------------------------
D|-------------------------------
A|-0000-8*--5555-7777------------
E|-------------------------------

G|-------------------------------
D|-------------------------------
A|-0000-8*--3333-2222------------
E|-------------------------------

G|--------------------------------------
D|--------------------------------------
A|-0-000000-3-333333-5-555555-----------
E|----------------------------6-666666--

Verso
G|-------------------------------
D|-------------------------------
E|-0000-8888-5555-7777-----------
A|-------------------------------

Break's verso
G|---------------------------------------
D|---------------------------------------
A|-00*-00*--8-00*-00*-57----008800880088-
E|---------8-----------------------------

Coro
G|------------------------------
D|------------------------------
A|-00*-33*-22-------------------
E|------------------------------

G|------------------------------
D|------------------------------
A|-0000------5555-7777----------
E|------3333--------------------

G|--------------------------------
D|--------------------------------
A|--------------------------------
E|-55555-3333-5-3-55555-33333-5-3-

G|--------------------------------------
D|--------------------------------------
A|-0-000000-3-333333-5-555555-----------
E|----------------------------6-666666--

Verso de nuevo 1x

G|------------------------------
D|-------------------3----------
A|--------5-7--------3----------
E|-555-33------55-33------------

Clipes

Cifra Club Pro

Aproveite o Cifra Club com benefícios exclusivos e sem anúncios
7 dias grátis
Cifra Club Pro
Aproveite o Cifra Club com benefícios exclusivos e sem anúncios
7 dias grátis