Dead End

Mxpx

Tom: G
#1t1#Intro 2x
#1t2#G|-------------------------------
D|-------------------------------
A|-0-00-7-77-5-55-8-88-55-77-----
E|-------------------------------#/1t2##/1t1#

#2t1##2t2#G|-------------------------------
D|-------------------------------
A|-0-00-7-77-10-1010-8-88-55-77--
E|-------------------------------#/2t2##/2t1#

#3t1##3t2#G|-------------------------------
D|-------------------------------
A|-0-00-7-77-5-55-8-88-55-77-----
E|-------------------------------#/3t2##/3t1#

#4t1##4t2#G|-------------------------------
D|-------------------------------
A|-0-00-7-77-5-55-3-33-22-33-----
E|-------------------------------#/4t2##/4t1#

#5t1##5t2#G|-------------------------------
D|-------------------------------
A|--0~-00-33-55-22-0~------------
E|-------------------------------#/5t2##/5t1#

#6t1##6t2#G|-------------------------------
D|-------------------------------
A|-0000-8*--5555-7777------------
E|-------------------------------#/6t2##/6t1#

#7t1##7t2#G|-------------------------------
D|-------------------------------
A|-0000-8*--3333-2222------------
E|-------------------------------#/7t2##/7t1#

#8t1##8t2#G|--------------------------------------
D|--------------------------------------
A|-0-000000-3-333333-5-555555-----------
E|----------------------------6-666666--#/8t2##/8t1#

#9t1#Verso
#9t2#G|-------------------------------
D|-------------------------------
E|-0000-8888-5555-7777-----------
A|-------------------------------#/9t2##/9t1#

#10t1#Break's verso
#10t2#G|---------------------------------------
D|---------------------------------------
A|-00*-00*--8-00*-00*-57----008800880088-
E|---------8-----------------------------#/10t2##/10t1#

#11t1#Coro
#11t2#G|------------------------------
D|------------------------------
A|-00*-33*-22-------------------
E|------------------------------#/11t2##/11t1#

#12t1##12t2#G|------------------------------
D|------------------------------
A|-0000------5555-7777----------
E|------3333--------------------#/12t2##/12t1#

#13t1##13t2#G|--------------------------------
D|--------------------------------
A|--------------------------------
E|-55555-3333-5-3-55555-33333-5-3-#/13t2##/13t1#

#14t1##14t2#G|--------------------------------------
D|--------------------------------------
A|-0-000000-3-333333-5-555555-----------
E|----------------------------6-666666--#/14t2##/14t1#

Verso de nuevo 1x

#15t1##15t2#G|------------------------------
D|-------------------3----------
A|--------5-7--------3----------
E|-555-33------55-33------------#/15t2##/15t1#
Composição: Mike HerreraColaboração e revisão: Danilo Dutra