First Class Mail

Mxpx

Tom: G
#1t1#Intro: 
#1t2#e|------------------------------------------------------------------| 
B|------------------------------------------------------------------| 
G|--3-------------3-------------------------------------------------| 
D|--3-------------3-------------------------------------------------| 
A|--1-------------1-------------------------------------------------| 
E|------------------------------------------------------------------| #/1t2##/1t1#

#2t1#Solo: 
#2t2#e|------------------------------------------------------------------| 
B|-----------4--------------------------------4-------9-7-6--4-6-7--| 
G|---3--5-6----6-5--3--5-6-----5-6----3---5-6---6-5-----------------| 
D|--------------------------6---------------------------------------| 
A|------------------------------------------------------------------| 
E|------------------------------------------------------------------| #/2t2##/2t1#

#3t1#Riff 1:(play 4 times) 
#3t2#e|---------------------------------------------------------| 
B|---------------------------------------------------------| 
G|--3-----------6------------------------------------------| 
D|--3-----4-----6-----6------------------------------------| 
A|--1-----4-----4-----6------------------------------------| 
E|--------2-----------4------------------------------------| #/3t2##/3t1#

#4t1#Riff 2:(play 2 times) 
#4t2#e|------------------------------------------------| 
B|------------------------------------------------| 
G|-3-----6------8------11-10-8-6------------------| 
D|-3-----6------8------11-10-8-6------------------| 
A|-1-----4------6------9--8--6-4------------------| 
E|------------------------------------------------| #/4t2##/4t1#

#5t1#Riff 3:(play 2 times) 
#5t2#e|------------------------------------------------------------------| 
B|------------------------------------------------------------------| 
G|--3-----6-3-----4-3-----4-3--8--11-3------------------------------| 
D|--3-----6-3-----4-3-----4-3--8--11-3------------------------------| 
A|--1-----4-1-----6-1-----6-1--6--9--1------------------------------| 
E|------------------------------------------------------------------| #/5t2##/5t1#

#6t1##6t2#e|------------------------------------------------------------------| 
B|------------------------------------------------------------------| 
G|-------6-----3--------3-------------------------------------------| 
D|--4----6--6--3--------3-------------------------------------------| 
A|--4----4--6--1--------1-------------------------------------------| 
E|--2-------4-------------------------------------------------------| #/6t2##/6t1#

then...
solo 
Riff 1-4 times 
Riff 2-2 times 
Riff 2-2 times 

#7t1#Outro: 
#7t2#e|------------------------------------------------------------------| 
B|------------------------------------------------------------------| 
G|-----4----3-------------------------------------------------------| 
D|-4---4-4--3-------------------------------------------------------| 
A|-4---6-4--1-------------------------------------------------------| 
E|-2-----6----------------------------------------------------------|#/7t2##/7t1#
Composição: Colaboração e revisão: Paulo Jaffet