busca

Sad Sad Song

Mxpx

Secret Weapon
Standard EADG

Somebody else started this song by posting the intro.  I have a small change to the
to make it easier to play plus a couple notes I think are different.  I added the blues
they play for the chorus.  The song changes back and forth between the intro and the 
riffs; listen to the song to hear where.

h=hold

Intro:
G|------6--------9------------6-----------------|
D|--7h-----7--6-----6--4h--7-----7-----6--9--6--|
A|----------------------------------7-----------|
E|----------------------------------------------|

Chorus riffs:

G|-------------4---------------4----------------|
D|-----4-4-7-7---7-----4-4-7-7---7--------------|
A|-5-5-------------5-5--------------------------|
E|----------------------------------------------|

G|----------------------------------------------|
D|-------------4---------------4----------------|
A|-----4-4-7-7---7-----4-4-7-7---7--------------|
E|-5-5-------------5-5--------------------------|

G|----------------------------------------------|
D|---------7-7-6-----------7-7-6----------------|
A|-----6-6-------9-----6-6-------9--------------|
E|-7-7-------------7-7--------------------------|

G|---------7-7-6-6------------------------------|
D|-----6-6---------9-9-9-9-9-9-9-9--------------|
A|-7-7------------------------------------------|
E|----------------------------------------------|

No no no no no no no noo part:

G|----------------------------------------------|
D|----------------------------------------------|
A|---------5....-----------5..-7..--------------|
E|-5....-----------7....------------------------|


Ending:
G|...-------|
D|...7------|
A|...0------|
E|...-------|

Clipes

Cifra Club Pro

Aproveite o Cifra Club com benefícios exclusivos e sem anúncios
Cifra Club Pro
Aproveite o Cifra Club com benefícios exclusivos e sem anúncios