Twisted Words

Mxpx

Tom: G
>=play a couple of time 
ring=let the note sound 
/=slide down =slide up 

#1t1#Intro 
#1t2#G|-----------------------------------------------| 
D|-14(8)--------------------7-7-7-7-5-5-5-4-5/7-| 
A|--------7--7ring----5--5-5---------------------| 
E|-----------------------------------------------| #/1t2##/1t1#

#2t1##2t2#G|-------------------------------------------------| 
D|--------------------7-7-7-7-5-5-5-4--------------| 
A|-7--7ring----5--5-5-----------------5-5/7ring--7-|Follow quickly 
E|-------------------------------------------------|with verse #/2t2##/2t1#

#3t1#Verse (00:17) 
#3t2#G|(x4)---------| 
D|-------------| 
A|-7>-0>-3>-5>-| 
E|-------------| #/3t2##/3t1#

#4t1#Pre-Chorus (00:28) 
#4t2#G|------------------------------------------------------------------- 
D|--------------------------------7-5------------7-5-------------7-5- 
A|-7--7-5-7--7-5-7--7-5-7--7-5--7--------4-5-6-7-----5-0-4-0-5-7----- 
E|-------------------------------------5----------------------------- #/4t2##/4t1#

#5t1##5t2#-------------------------| 
-----------7-5-----------| 
---4-5-6-7-----5-0-4-0-5-| 
-5-----------------------| #/5t2##/5t1#

#6t1#Chorus (00:37) 
#6t2#G|------------------------------------------------------------| 
D|------------------------------------------------------------| 
A|-7--7-0-3--3-0--------5--5-0---7--7-0-3--3-0--------5--5--5-| 
E|---------------3--3-0------------------------3--3-0---------| #/6t2##/6t1#

#7t1##7t2#G|------------------------------------------------------------| 
D|------------------------------------------------------------| 
A|-7--7-0-3--3-0--------5--5-0---7--7-0-3--3-0--------5--5-0--| 
E|---------------3--3-0------------------------3--3-0---------| #/7t2##/7t1#

#8t1#(00:48) 
#8t2#G|(x3)---------|(x1)-------------------| 
D|-------------|-----------------------| 
A|-7>-3>----5>-|-7>-3>----5>--7ring--7-| 
E|-------3>----|-------3>--------------| #/8t2##/8t1#

#9t1#Verse (01:00) 
#9t2#G|(x4)---------| 
D|-------------| 
A|-7>-0>-3>-5>-| 
E|-------------| #/9t2##/9t1#

(Pre-Chorus) (01:11-01:12) 

#10t1#Chorus (01:20) 
#10t2#G|------------------------------------------------------------| 
D|------------------------------------------------------------| 
A|-7--7-0-3--3-0--------5--5-0---7--7-0-3--3-0--------5--5--5-| 
E|---------------3--3-0------------------------3--3-0---------| #/10t2##/10t1#

#11t1##11t2#G|------------------------------------------------------------| 
D|------------------------------------------------------------| 
A|-7--7-0-3--3-0--------5--5-0---7--7-0-3--3-0--------5--5-0--| 
E|---------------3--3-0------------------------3--3-0---------| #/11t2##/11t1#

#12t1#Faster part (01:31-01:32) 
#12t2#G|------------------------------------------------------------------| 
D|------------------------------------------------------------------| 
A|-7-7-7-7-3-3-3-3---------5-5-5-5--7-7-7-7-3-3-3-3---------5-5-5-5-| 
E|-----------------3-3-3-3--------------------------3-3-3-3---------| #/12t2##/12t1#

#13t1#(01:36) 
#13t2#G|(x3)---------|(x1)---------------9--------5-----------------7--- 
D|-------------|-----------------9---9----5---5------5------7---7- 
A|-7>-3>----5>-|-7>-3>----5>---7--------3----------5---5--5------- 
E|-------3>----|-------3>------------------------3---------------- #/13t2##/13t1#

#14t1##14t2#-----------------------| 
----------(Drum roll)--| 
-3/7ring---------------| 
-----------------------| #/14t2##/14t1#

#15t1#Outro (01:56) 
#15t2#G|(x4)---------|(x1)----------------| 
D|-------------|--------------------| 
A|-7>-3>----5>-|-7>-3>----5-5-5-5-7-| 
E|-------3>----|-------3>-----------|End#/15t2##/15t1#
Composição: Mike HerreraColaboração e revisão: Danilo Dutra