busca

Twisted Words

Mxpx

Tom: E
>=play a couple of time 
ring=let the note sound 
/=slide down =slide up 

Intro 
G|-----------------------------------------------| 
D|-14(8)--------------------7-7-7-7-5-5-5-4-5/7-| 
A|--------7--7ring----5--5-5---------------------| 
E|-----------------------------------------------| 

G|-------------------------------------------------| 
D|--------------------7-7-7-7-5-5-5-4--------------| 
A|-7--7ring----5--5-5-----------------5-5/7ring--7-|Follow quickly 
E|-------------------------------------------------|with verse 

Verse (00:17) 
G|(x4)---------| 
D|-------------| 
A|-7>-0>-3>-5>-| 
E|-------------| 

Pre-Chorus (00:28) 
G|------------------------------------------------------------------- 
D|--------------------------------7-5------------7-5-------------7-5- 
A|-7--7-5-7--7-5-7--7-5-7--7-5--7--------4-5-6-7-----5-0-4-0-5-7----- 
E|-------------------------------------5----------------------------- 

-------------------------| 
-----------7-5-----------| 
---4-5-6-7-----5-0-4-0-5-| 
-5-----------------------| 

Chorus (00:37) 
G|------------------------------------------------------------| 
D|------------------------------------------------------------| 
A|-7--7-0-3--3-0--------5--5-0---7--7-0-3--3-0--------5--5--5-| 
E|---------------3--3-0------------------------3--3-0---------| 

G|------------------------------------------------------------| 
D|------------------------------------------------------------| 
A|-7--7-0-3--3-0--------5--5-0---7--7-0-3--3-0--------5--5-0--| 
E|---------------3--3-0------------------------3--3-0---------| 

(00:48) 
G|(x3)---------|(x1)-------------------| 
D|-------------|-----------------------| 
A|-7>-3>----5>-|-7>-3>----5>--7ring--7-| 
E|-------3>----|-------3>--------------| 

Verse (01:00) 
G|(x4)---------| 
D|-------------| 
A|-7>-0>-3>-5>-| 
E|-------------| 

(Pre-Chorus) (01:11-01:12) 

Chorus (01:20) 
G|------------------------------------------------------------| 
D|------------------------------------------------------------| 
A|-7--7-0-3--3-0--------5--5-0---7--7-0-3--3-0--------5--5--5-| 
E|---------------3--3-0------------------------3--3-0---------| 

G|------------------------------------------------------------| 
D|------------------------------------------------------------| 
A|-7--7-0-3--3-0--------5--5-0---7--7-0-3--3-0--------5--5-0--| 
E|---------------3--3-0------------------------3--3-0---------| 

Faster part (01:31-01:32) 
G|------------------------------------------------------------------| 
D|------------------------------------------------------------------| 
A|-7-7-7-7-3-3-3-3---------5-5-5-5--7-7-7-7-3-3-3-3---------5-5-5-5-| 
E|-----------------3-3-3-3--------------------------3-3-3-3---------| 

(01:36) 
G|(x3)---------|(x1)---------------9--------5-----------------7--- 
D|-------------|-----------------9---9----5---5------5------7---7- 
A|-7>-3>----5>-|-7>-3>----5>---7--------3----------5---5--5------- 
E|-------3>----|-------3>------------------------3---------------- 

-----------------------| 
----------(Drum roll)--| 
-3/7ring---------------| 
-----------------------| 

Outro (01:56) 
G|(x4)---------|(x1)----------------| 
D|-------------|--------------------| 
A|-7>-3>----5>-|-7>-3>----5-5-5-5-7-| 
E|-------3>----|-------3>-----------|End

Clipes

Cifra Club Pro

Aproveite o Cifra Club com benefícios exclusivos e sem anúncios
Cifra Club Pro
Aproveite o Cifra Club com benefícios exclusivos e sem anúncios