busca

Don't Go Away

Oasis

Tom: C
[Intro]

                  Am7   G               F7M          Dsus2
E|-----------------------------------------------------------|
B|-----------------------------------------------------------|
G|--------5h7b-----7b7---5---7---5---------------------------|
D|--5h7-----------------------------7----7---7-------------7-|
A|-----------------------------------------------5h7-5--0----|
E|-----------------------------------------------------------|

Am7                           G
A cold and frosty morning there's not a lot to say
            F7M                   Dsus2
About the things caught in my mind
Am7                         G
And as the day was dawning my plain flew away
               F7M                  Dsus2
With all the things caught in my mind

Dm                                   F
And I don't wanna be there when you're coming down
Dm                                   F             G
And I don't wanna be there when you hit the ground

            C                   G/B
So don't go away, say what you say
                      Am7                G
But say that you'll stay, forever and a day
                   F                       G
In the time of my life, cause I need more time
                 Am             G         F
Yes I need more time just to make things right

 Am7                       G
Damn my situation and the games I have to play
               F7M                  Dsus2
With all the things caught in my mind
 Am7                 G
Damn my education I can't find the words to say
            F7M                  Dsus2
About the things caught in my mind

Dm                                   F
And I don't wanna be there when you're coming down
Dm                                   F
And I don't wanna be there when you hit the ground

 G            C                 G/B
So don't go away, say what you say
    ´                 Am7                G
But say that you'll stay, forever and a day
                   F                      G
In the time of my life cause I need more time
                 Am             G         F
Yes I need more time just to make things right

 Fm
Me and you what's going on

[Solo 1]

       C          G           Am
E|----------------------------------------------------------|
B|----------------------------------------------------------|
G|-----5----5-7b-5---5--5-----------------------------------|
D|-5h7----7--------7------7---------------------------------|
A|----------------------------------------------------------|
E|----------------------------------------------------------|

F                               Fm
All we seem to know is how to show the feelings that are wrong

[Solo 2]

       C                 G                    Am                         G                     F
E|-------------------------------8--10-8-------8----8-10-8------8-8------8----8-10-8------8--|
B|-------------------------8--10----------8-10---10--------8-10-----8-10---10--------8-10----|
G|-----5--5-7b-7b-5---5-9--------------------------------------------------------------------|
D|-5h7--------------7------------------------------------------------------------------------|
A|-------------------------------------------------------------------------------------------|
E|-------------------------------------------------------------------------------------------|

 G            C                 G/B
So don't go away, say what you say
    ´                 Am7                G
But say that you'll stay, forever and a day
                   F                      G
In the time of my life cause I need more time
                 Am             G         F
Yes I need more time just to make things right
                 Am             G         F
Yes I need more time just to make things right
                 Am             G         F
Yes I need more time just to make things right
                           Am             G      F  Fm
Yes I need more time just to make things right
               C
So, don't go away

( Am  G  F  Dm )

E|---------------3-----------------3----------------|
B|----------1--------1--------1---------------------|
G|----4------------------4--------------------------|
D|--------------------------------------------------|
A|--------------------------------------------------|
E|--------------------------------------------------|

Clipes

Cifra Club Pro

Aproveite o Cifra Club com benefícios exclusivos e sem anúncios
7 dias grátis
Cifra Club Pro
Aproveite o Cifra Club com benefícios exclusivos e sem anúncios
7 dias grátis