busca

À sua maneira

Rionegro e Solimões

Tom: D
Introdução: Bm      G D       A             Bm      G D       A


e|-10--9--10-10--10--10--9--10-10--10--10--9--10-10--10--10--9--10-10--10---|
B|---10-10-----10--10--10-10-----10--10--10-10-----10--10--10-10-----10--10-|
G|--------------------------------------------------------------------------|
D|--------------------------------------------------------------------------|
A|--------------------------------------------------------------------------|
E|--------------------------------------------------------------------------|

                   Bm      G D       A             Bm      G D       A

e|-7-7-7-5-7----5-7-5-7-9-10-9-7-5-7-7-7-5-7-14-7-5-7-9-10-9-7-5-7---------|
B|------------7------------------------------------------------------------|
G|-------------------------------------------------------------------------|
D|-------------------------------------------------------------------------|
A|-------------------------------------------------------------------------|
E|-------------------------------------------------------------------------|

Bm      G D     A        Bm   G D    A
Ela dormiu   no calor dos meus braços
 Bm         G  D  A     Bm   G D    A
E eu acordei sem saber se era um sonho
 Bm        G D    A      Bm    G  D   A
Algum tempo atrás,  pensei em te dizer
    Bm      G D       A      Bm   G  D  A
Que eu nunca cai nas suas armadilhas de amor

Bm      G D   A   Bm   G D  A
Naquele amor   à sua maneira
Bm         G  D A     Bm      G D   A
Perdendo meu tempo   a noite inteira
Bm      G D   A   Bm   G D  A
Naquele amor   à sua maneira
Bm         G  D A     Bm      G D   A
Perdendo meu tempo   a noite inteira

Bm     G D   A      Bm     G D A
Não mandarei   cinzas de rosas
  Bm       G D    A      Bm     G D  A
Nem penso em contar   os nossos segredos

Bm      G D   A   Bm   G D  A
Naquele amor   à sua maneira
Bm         G  D A     Bm      G D   A
Perdendo meu tempo   a noite inteira
Bm      G D   A   Bm   G D  A
Naquele amor   à sua maneira
Bm         G  D A     Bm      G D   A
Perdendo meu tempo   a noite inteira

e|-----------------------------------------------------------------------------------|
B|-------------------------------------------------------------7-10-10/7-------------|
G|-------------------------------------------2---2-4-------7-9-----------9---7---9-7-|
D|-------0---0-0-----------------------0-2-4---4-------7/9-----------------9---9-----|
A|-2-2-4---------4-2-0---0-2-0---2-2-4-----------------------------------------------|
E|---------------------2-------------------------------------------------------------|

Repete tudo e no final...

  A    Bm      G D A
A noite inteira
  A    Bm      G D A
A noite inteira

        Bm      G D       A             Bm      G D       A         Bm


e|-7-7-7-5-7---5-7-5-7-9-10-9-7-5-7-7-7-5-7---5-7-5-7-9-10-9-7-5-7-5-------|
B|-----------7------------------------------7------------------------7-5---|
G|-----------------------------------------------------------------------4-|
D|-------------------------------------------------------------------------|
A|-------------------------------------------------------------------------|
E|-------------------------------------------------------------------------|

Clipes

Cifra Club Pro

Aproveite o Cifra Club com benefícios exclusivos e sem anúncios
Cifra Club Pro
Aproveite o Cifra Club com benefícios exclusivos e sem anúncios