Menino da Porteira

Sérgio Reis

A
123
X02220
D
123
XX0232
E
123
022100
Tom: G
[Intro] E  A  E  A  E  A  E  A  E  A


Parte 1 de 3

E|-10-10-10--9--------------------
B|-12-12-12--10--5-5-5--7-9-7-5-3-
G|---------------6-6-6--7-9-7-6-4-
D|--------------------------------
A|--------------------------------
E|--------------------------------

E|---------------------| 
B|-2-2--3-2------------| 
G|-2-2--4-2------------| 
D|---------------------| 
A|---------------------| 
E|---------------------| 



Parte 2 de 3

E|-10-10-10--9---9-9-9--10-12-10-
B|-12-12-12--10------------------
G|---------------9-9-9--11-13-11-
D|-------------------------------
A|-------------------------------
E|-------------------------------

E|9-7--5-5-7-5----------| 
B|----------------------| 
G|9-7--6-6-7-6----------| 
D|----------------------| 
A|----------------------| 
E|----------------------| 



Parte 3 de 3

E|-10-10-10--9--------------------
B|-12-12-12--10-------------------
G|--------------------------------
D|--------------------------------
A|--------------------------------
E|--------------------------------


[Primeira parte]

A
  Toda vez que eu viajava
                      E
Pela estrada de Ouro Fino

De longe eu avistava
                  A
A figura de um menino

Que corria abrir a porteira
                     E
E depois vinha me pedindo

Toque o berrante, seu moço
          D     E     A
Que é pra eu ficar ouvindo

[Segunda parte]

       D
Quando a boiada passava
                  E
E a poeira ia baixando
Eu jogava uma moeda e ele saía 
   A
pulando

Obrigado, boiadeiro
                        E
Que Deus vá lhe acompanhando

Pra aquele sertão afora
        D     E    A
Meu berrante ia tocando

( E  A  E  A  E  A  E  A  E  A )


Parte 1 de 3

E|-10-10-10--9--------------------
B|-12-12-12--10--5-5-5--7-9-7-5-3-
G|---------------6-6-6--7-9-7-6-4-
D|--------------------------------
A|--------------------------------
E|--------------------------------

E|---------------------| 
B|-2-2--3-2------------| 
G|-2-2--4-2------------| 
D|---------------------| 
A|---------------------| 
E|---------------------| 


Parte 2 de 3 E|-10-10-10--9---9-9-9--10-12-10- B|-12-12-12--10------------------ G|---------------9-9-9--11-13-11- D|------------------------------- A|------------------------------- E|------------------------------- E|9-7--5-5-7-5----------| B|----------------------| G|9-7--6-6-7-6----------| D|----------------------| A|----------------------| E|----------------------| Parte 3 de 3 E|-10-10-10--9-------------------- B|-12-12-12--10------------------- G|-------------------------------- D|-------------------------------- A|-------------------------------- E|-------------------------------- [Terceira parte] A Nos caminhos desta vida E Muitos espinhos eu encontrei Mas nenhum calou mais fundo A Do que esse eu passei Na minha viagem de volta E Qualquer coisa eu cismei Vendo a porteira fechada D E A O menino não avistei [Quarta parte] D Apeei do meu cavalo E E no ranchinho à beira chão Vi uma mulher chorando A Quis saber qual a razão Boiadeiro veio tarde E Veja a cruz no estradão Quem matou o meu filhinho D E A Foi um boi sem coração ( E A E A E A E A E A ) Parte 1 de 3 E|-10-10-10--9-------------------- B|-12-12-12--10--5-5-5--7-9-7-5-3- G|---------------6-6-6--7-9-7-6-4- D|-------------------------------- A|-------------------------------- E|-------------------------------- E|---------------------| B|-2-2--3-2------------| G|-2-2--4-2------------| D|---------------------| A|---------------------| E|---------------------| Parte 2 de 3 E|-10-10-10--9---9-9-9--10-12-10- B|-12-12-12--10------------------ G|---------------9-9-9--11-13-11- D|------------------------------- A|------------------------------- E|------------------------------- E|9-7--5-5-7-5----------| B|----------------------| G|9-7--6-6-7-6----------| D|----------------------| A|----------------------| E|----------------------| Parte 3 de 3 E|-10-10-10--9-------------------- B|-12-12-12--10------------------- G|-------------------------------- D|-------------------------------- A|-------------------------------- E|-------------------------------- [Quinta parte] A Lá pras bandas de Ouro Fino E Levando gado selvagem Quando passo na porteira A Até vejo a sua imagem O seu rangido tão triste E Mais parece uma mensagem Daquele rosto trigueiro D E A Desejando-me boa viagem [Sexta parte] D A cruzinha no estradão E Do pensamento não sai Eu já fiz um juramento A Que não esqueço jamais Nem que o meu gado estoure E Que eu precise ir atrás Neste pedaço de chão D E A Berrante eu não toco mais ( E A E A E A E A E A ) Parte 1 de 3 E|-10-10-10--9-------------------- B|-12-12-12--10--5-5-5--7-9-7-5-3- G|---------------6-6-6--7-9-7-6-4- D|-------------------------------- A|-------------------------------- E|-------------------------------- E|---------------------| B|-2-2--3-2------------| G|-2-2--4-2------------| D|---------------------| A|---------------------| E|---------------------| Parte 2 de 3 E|-10-10-10--9---9-9-9--10-12-10- B|-12-12-12--10------------------ G|---------------9-9-9--11-13-11- D|------------------------------- A|------------------------------- E|------------------------------- E|9-7--5-5-7-5----------| B|----------------------| G|9-7--6-6-7-6----------| D|----------------------| A|----------------------| E|----------------------| Parte 3 de 3 E|-10-10-10--9-------------------- B|-12-12-12--10------------------- G|-------------------------------- D|-------------------------------- A|-------------------------------- E|--------------------------------
Composição: Luizinho / Teddy VieiraColaboração e revisão: Caico AntunesGetúlio Vasconcelosgwstvo@hotmail.com.brMurillo Silvae mais 7
Videoaula MENINO DA PORTEIRA (aula de violão completa)

Utilizamos cookies para personalizar sua experiência. Ao acessar o site, você concorda com a nossa Política de Privacidade.