busca

Amanhecendo

5 a Seco

Tom: F# (forma dos acordes no tom de E) Capotraste na 2ª casa
Riff 1:

    EM7  G#m5+ *E6/B C#m5+
E|----------------------|
B|---9/--4-----(5)---5--|
G|---8/--4------6----6--|
D|---9/--2------6----7--|
A|-7----------2------4--|
E|-------4--------------|

*Pode ser usado também B9(6): trocar a nota (5) em B por (7) em B.

Riff 2
   EM7 G#m5+  E6/B   A
E|---------------------|
B|---9/--4----(5)---5--|
G|---8/--4-----6----6--|
D|---9/--2-----6----7--|
A|-7---------2------7--|
E|-------4----------5--|

A música toda segue o riff 1 e ao final da introdução e do refrão, usa-se o riff 2.

Intro:
Riff 1 (3x)
Riff 2 (1x)

Verso 1: 
Riff 1 (8x)
Atrasei ponteiros pra ficar
Eu perdi a hora de andar
Dá pra ver o sol lá fora
Vem minha voz dizer: "Não olha"
No entanto a espanto bem

Verso 2:
Riff 1 (4x)
Conto pra mim que o fim tem hora
Ponto pra mim!
E eu: "Não, não chora"
Enquanto o pranto vem

Refrão:
Riff 1 (3x)
Riff 2 (1x)
Embora o corpo peça assim pra ficar, eu vou
Embora
E eu tento dar um fim
Pronto, acabou

Clipes

Cifra Club Pro

Aproveite o Cifra Club com benefícios exclusivos e sem anúncios
7 dias grátis
Cifra Club Pro
Aproveite o Cifra Club com benefícios exclusivos e sem anúncios
7 dias grátis