Só Por Uma Noite

Charlie Brown Jr.

A5
12
X022XX
B5
134
X244XX
C#5
134
X466XX
E5
12
022XXX
G#5
134
466XXX
Tom: G
Introdução 1: Riff


E|-------------------------------
B|-------------------------------
G|-------------------------------
D|-----2---4----------4----------
A|-2h4---4-------2--2----------2-
E|------------0----------0-2h4---

E|---------------------| 
B|---------------------| 
G|---------------------| 
D|---------------------| 
A|--2--2--2-2--2-2-----| 
E|4--------------------| 



E|-------------------------------
B|-------------------------------
G|-------------------------------
D|-----2---4----------4----------
A|-2h4---4-------2--2----------2-
E|------------0----------0-2h4---

E|---------------------| 
B|---------------------| 
G|---------------------| 
D|---------------------| 
A|--2------------------| 
E|4--------------------| 



Introdução 2:
C#5  E5  G#5  B5
C#5  E5  G#5  B5
C#5  E5  G#5  B5
C#5  E5  G#5  B5


E|--------------------------------
B|--------------------------------
G|-8/9--9-9-9-8-4--4-4--4--x-x----
D|-------------------------x-x----
A|-6/7--7-7-7-6-2--2-2--2--x-x----
E|--------------------------------



E|--------------------------------
B|--------------------------------
G|-14/16\14-13-11--11/13\9--------
D|--------------------------------
A|-12/14\12-11-9---9-/11\7--------
E|--------------------------------



E|--------------------------------
B|--------------------------------
G|-8/9--9-9-9-8-/11--9--8\--------
D|--------------------------------
A|-6/7--7-7-7-6-/9---7--6\--------
E|--------------------------------



E|---------7--------------7------
B|-------------------------------
G|-----9------9-8-9---9------9-8-
D|-7/9---9----------9---9--------
A|-------------------------------
E|-------------------------------

E|--------7------------| 
B|---------------------| 
G|9---9------9-8-9-----| 
D|--9---9--------------| 
A|---------------------| 
E|---------------------| 



E|--------------------------------
B|-------17----16--17----------17-
G|-14/16----16--------16~--/16----
D|--------------------------------
A|--------------------------------
E|--------------------------------

E|---19---------------| 
B|--------------------| 
G|16------------------| 
D|--------------------| 
A|--------------------| 
E|--------------------| 



Introdução 3:
G#5  A5  E5
G#5  A5  E5


E|--------------------------------
B|--------------------------------
G|-11/13\11\9--8/9\--4--4------4--
D|--------------------------------
A|-9-/11\9-\7--6/7\--2--2--2-2-2--
E|--------------------------------

E|--------------------| 
B|--------------------| 
G|4--4----------------| 
D|--------------------| 
A|2--2--x-x-----------| 
E|--------------------| 



E|--------------------------------
B|--------------------------------
G|-11/13\11\9--8/9\--4--4------4--
D|--------------------------------
A|-9-/11\9-\7--6/7\--2--2--2-2-2--
E|--------------------------------

E|--------------------| 
B|--------------------| 
G|4--4----------------| 
D|--------------------| 
A|2--2----------------| 
E|--------------------| 



Primeira Estrofe:

G#5        A5              E5
    Eu procurei em outros corpos 
encontrar você
G#5                 A5           
    Eu procurei um bom motivo pra
     E5
 não

Pra não falar
G#5              A5
    Procurei me manter afastado
       E5
Mas você me conhece eu faço tudo 
errado
G#5  A5     E5
    Tudo errado


Segunda Estrofe:

G#5         A5               E5
    Fim de semana, eu sei lá

Vou viajar
                             G#5
Vou me embalar, vou dar uma festa
                 A5
Eu vou tocar um puteiro
                E5
Eu vou te esquecer, nem que for


Primeiro Refrão:

G#5 A5 Só por uma noite E5 Só por uma noite G#5 A5 Só por uma noite E5 Só por uma noite Terceira Estrofe: C#5 E5 C#5 Mas só de ouvir a sua voz E5 Eu já me sinto bem G#5 B5 Mas se é difícil pra você tudo bem G#5 B5 Muita gente se diverte com o que tem C#5 E5 C#5 Só de ouvir a sua voz E5 Já me sinto bem G#5 B5 Mas se é difícil pra você tudo bem G#5 B5 Quando a gente se diverte com o que tem G#5 A5 E5 Se diverte com o que tem G#5 A5 E5 Só por uma noite Introdução 2: C#5 E5 G#5 B5 C#5 E5 G#5 B5 C#5 E5 G#5 B5 C#5 E5 G#5 B5 Introdução 3: G#5 A5 E5 G#5 A5 E5 Quarta Estrofe: G#5 A5 E5 Eu procurei abrir os olhos e enxergar você G#5 A5 Eu procurei um bom motivo pra E5 não Pra não estar lá G#5 A5 Eu Procurei me manter afastado E5 Mas você me conhece eu faço tudo errado G#5 A5 E5 Tudo errado Quinta Estrofe: G#5 A5 E5 Fim de semana, eu sei lá Vou viajar G#5 Vou me embalar, vou dar uma festa A5 Eu vou tocar um puteiro E5 Eu vou te esquecer, nem que for Segundo Refrão: G#5 A5 Só por uma noite E5 Só por uma noite G#5 A5 Só por uma noite E5 Só por uma noite Sexta Estrofe: C#5 E5 C#5 Mas só de ouvir a sua voz E5 Eu já me sinto bem G#5 B5 Mas se é difícil pra você tudo bem G#5 B5 Muita gente se diverte com o que tem C#5 E5 C#5 Só de ouvir a sua voz E5 Já me sinto bem G#5 B5 Mas se é difícil pra você tudo bem G#5 B5 Quando a gente se diverte com o que tem C#5 E5 G#5 Se diverte com o que B5 tem C#5 E5 G#5 B5 Só por uma noite ( C#5 E5 G#5 B5 ) ( C#5 E5 G#5 B5 ) Riff do Final: E|------------------------------ B|-4h5-5---5h7-5~--------------- G|-4---4---4---4-------4h6p4---- D|-------6---------4-6-------6-- A|------------------------------ E|------------------------------ E|----------------------| B|7b9-b9r7-5-5~--5/7----| G|----------------------| D|-------------------9\-| A|----------------------| E|----------------------| E|-------------------------------- B|-4h5-5---5h7-7b9--7b9r\--------- G|-4---4---4---------------------- D|-------6------------------------ A|-------------------------------- E|-------------------------------- E|---------7--------------7------ B|------------------------------- G|-----9------9-8-9---9------9-8- D|-7/9---9----------9---9-------- A|------------------------------- E|------------------------------- E|--------7------------| B|---------------------| G|9-9---9----9-8-9-----| D|----9----------------| A|---------------------| E|---------------------| E|-------------------------------- B|-------17----16--17----------17- G|-14/16----16--------16~--/16---- D|-------------------------------- A|-------------------------------- E|-------------------------------- E|---19---------------| B|--------------------| G|16------------------| D|--------------------| A|--------------------| E|--------------------|
Composição: Champgnon / Chorão / Marcão / Renato PeladoColaboração e revisão: Vinícius DiasGUSTAVO MORAESBreno Glauber Meloe mais 2
Videoaula Só Por Uma Noite (aula de guitarra)