A5
12
X022XX
C5
134
X355XX
D5
134
X577XX
F#5
134
244XXX
F5
134
133XXX
G5
134
355XXX
Tom: G
[Intro] D5  A5  F#5  G5
        D5  A5  F#5  G5
        D5  A5  F#5  G5
        D5  A5  F#5  G5

(Guitarra Base)


H.N      . . .           . . .
E|-------------------------------
B|-------------------------------
G|--7-7----7---------------7-----
D|--7-7--7---7------7-7--7---7---
A|--5-5-------------7-7----------
E|------------------5-5----------

E|--------------------|      
B|--------------------|      
G|--------------------|      
D|4-4-x-x-5-5-5-------| (2x) 
A|4-4-x-x-5-5-5-------|      
E|2-2-x-x-3-3-3-------|      


(Guitarra Solo)


E|-------------------------------
B|-------------------------------
G|---11-11/12-11--9-9-9/11-7-x-7-
D|---------------------------x---
A|----9--9/10-9---7-7-7/-9-5-x-5-
E|-------------------------------

E|--------------------| 
B|--------------------| 
G|7-------------------| 
D|--------------------| 
A|5-------------------| 
E|--------------------| 



E|--------------------------------
B|--------------------------------
G|-11-11/12-11--9-9-9/11-7--14\---
D|--------------------------------
A|--9--9/10-9---7-7-7/-9-5--12\---
E|--------------------------------


[Primeira Parte]

(Guitarra Base)


P.M. .    . .    .
E|--------------------------------
B|--------------------------------
G|-----7--------------------------
D|-----7------7----4--5--5-5------
A|-5-5-5------7----4--5--5-5------
E|--------5-5-5--2-2--3--3-3------

E|-------------------|      
B|-------------------|      
G|-------------------|      
D|-------------------| (3x) 
A|-------------------|      
E|-------------------|      



E|-------------------------------
B|-------------------------------
G|-7-7-x-x-----------------------
D|-7-7-x-x--7-7-x-x--4-4-x-x--5--
A|-5-5-x-x--7-7-x-x--4-4-x-x--5--
E|----------5-5-x-x--2-2-x-x--3--

E|--------------------| 
B|--------------------| 
G|--------------------| 
D|5-5-----------------| 
A|5-5-----------------| 
E|3-3-----------------| 


(Guitarra Solo)


P.M. .    . .    .
E|--------------------------------
B|--------------------------------
G|-----7--------------------------
D|-----7------7----4--5--5-5------
A|-5-5-5------7----4--5--5-5------
E|--------5-5-5--2-2--3--3-3------



E|-------------------------------
B|-------------------------------
G|--11-x-9---x-12/14/19-------x--
D|-----x-----x----------------x--
A|--9--x--7--x--10/12/17------x--
E|-------------------------------

E|--------------------| 
B|--------------------| 
G|11-x-9--x---7-7-7~--| 
D|---x----x-----------| 
A|-9-x--7-x---5-5-5~--| 
E|--------------------| 



E|-------------------------------
B|-------------------------------
G|--11--11-11-11/9-9-9-9-9/11-11-
D|-------------------------------
A|--9---9--9--9/7--7-7-7-7/9--9--
E|-------------------------------

E|--------------------| 
B|--------------------| 
G|11-11-11/12-12-12~--| 
D|--------------------| 
A|9--9--9/10--10-10~--| 
E|--------------------| 


D5            A5    F#5  G5
 Tive pensando  em me mudar
D5          A5       F#5  G5
 Sem te deixar pra trás, yeah
D5           A5     F#5  G5
 Resolvi pensar em nós, yeah
D5    A5   F#5    G5
 Vou te levar daqui

[Refrão]

(Guitarra Base e Solo)


H.N      . . .           . . .
E|-------------------------------
B|-------------------------------
G|--7-7----7---------------7-----
D|--7-7--7---7------7-7--7---7---
A|--5-5-------------7-7----------
E|------------------5-5----------

E|--------------------|      
B|--------------------|      
G|--------------------|      
D|4-4-x-x-5-5-5-------| (4x) 
A|4-4-x-x-5-5-5-------|      
E|2-2-x-x-3-3-3-------|      


    D5      A5   F#5 G5
Vou   te levar, yeah
      D5     A5  F#5 G5
Te levar daqui yeah
    D5      A5   F#5 G5
Vou   te levar, yeah
      D5     A5  F#5 G5
Te levar daqui yeah

( D5  A5  F#5  G5 )
( D5  A5  F#5  G5 )

(Guitarra Base)

H.N . . . . . . E|------------------------------- B|------------------------------- G|--7-7----7---------------7----- D|--7-7--7---7------7-7--7---7--- A|--5-5-------------7-7---------- E|------------------5-5---------- E|--------------------| B|--------------------| G|--------------------| D|4-4-x-x-5-5-5-------| (2x) A|4-4-x-x-5-5-5-------| E|2-2-x-x-3-3-3-------| (Guitarra Solo) E|------------------------------- B|------------------------------- G|---11-11/12-11--9-9-9/11-7-x-7- D|---------------------------x--- A|----9--9/10-9---7-7-7/-9-5-x-5- E|------------------------------- E|--------------------| B|--------------------| G|7-------------------| D|--------------------| A|5-------------------| E|--------------------| E|-------------------------------- B|-------------------------------- G|-11-11/12-11--9-9-9/11-7--14\--- D|-------------------------------- A|--9--9/10-9---7-7-7/-9-5--12\--- E|-------------------------------- [Primeira Parte] D5 A5 F#5 G5 Aquele tempo ficou pra trás D5 A5 F#5 G5 Eu nunca fui feliz ali D5 A5 F#5 G5 Resolvi pensar em nós, yeah D5 A5 F#5 G5 Vou te levar daqui [Refrão] D5 A5 F#5 G5 Vou te levar, yeah D5 A5 F#5 G5 Te levar daqui yeah D5 A5 F#5 G5 Vou te levar, yeah D5 A5 F#5 G5 Te levar daqui yeah [Ponte] (Guitarra Base e Solo) H.N . . . . . . . . . . . . E|------------------------------- B|------------7-7-------------7-7 G|--7-----7-7-------------7-7---- D|--7-7-7-----------7-7-7-------- A|--5---------------7------------ E|------------------5------------ E|--------------------| B|--------------------| G|--------------------| D|4-4-x-x-5-5-5-------| (3x) A|4-4-x-x-5-5-5-------| E|2-2-x-x-3-3-3-------| E|-------------------------------- B|-------------------------------- G|-7--7--------------------------- D|-7--7-----7--7-----4--4-----5--- A|-5--5-----7--7-----4--4-----5--- E|----------5--5-----2--2-----3--- E|-------------------| B|-------------------| G|-------------------| D|5-5----------------| A|5-5----------------| E|3-3----------------| E|------------------------------- B|------------------------------- G|--11--11-11-11/9-9-9-9-9/11-11- D|------------------------------- A|--9---9--9--9/7--7-7-7-7/9--9-- E|------------------------------- E|--------------------| B|--------------------| G|11-11-11/12-12-12~--| D|--------------------| A|9--9--9/10--10-10~--| E|--------------------| D5 A5 Mantenho a história de luz de glória F#5 Mas só deixa eu te contar o que eu G5 passei por lá D5 Mas eu ainda fico impressionado com A5 as coisas da cidade F#5 G5 Aqueles mano se foram chegaram antes se foram D5 Pra onde foram ninguém sabe ninguém A5 faz F#5 G5 Anos e anos da correria faz leva e traz D5 A5 Anos e anos da correria faz leva F#5 G5 e traz, yeah [Refrão] D5 A5 F#5 G5 Vou te levar, yeah D5 A5 F#5 G5 Te levar daqui yeah D5 A5 F#5 G5 Vou te levar, yeah D5 A5 F#5 G5 Te levar daqui yeah [Segunda Parte] (Guitarra Base) E|-------------------------------- B|-------------------------------- G|-5--5--5--5--5--5--5/10--10--10- D|-5--5--5--5--5--5--5/10--10--10- A|-3--3--3--3--3--3--3/8---8---8-- E|-------------------------------- E|-------------------| B|-------------------| G|-10--10--10--10----| D|-10--10--10--10----| A|-8---8---8---8-----| E|-------------------| E|-------------------------------- B|-------------------------------- G|-5--5--5--5--5--5--5/10--10--10- D|-5--5--5--5--5--5--5/10--10--10- A|-3--3--3--3--3--3--3/8---8---8-- E|-------------------------------- E|-------------------| B|-------------------| G|-10--10--10--10----| D|-10--10--10--10----| A|-8---8---8---8-----| E|-------------------| E|-------------------------------- B|-------------------------------- G|-5--5--5--5--5--5--5/10--10--10- D|-5--5--5--5--5--5--5/10--10--10- A|-3--3--3--3--3--3--3/8---8---8-- E|-------------------------------- E|-------------------| B|-------------------| G|-10--10--10--10----| D|-10--10--10--10----| A|-8---8---8---8-----| E|-------------------| E|-------------------------------- B|-------------------------------- G|-5--5--5--5--5--5--5/10--10--10- D|-5--5--5--5--5--5--5/10--10--10- A|-3--3--3--3--3--3--3/8---8---8-- E|-------------------------------- E|-------------------| B|-------------------| G|-10--10--10--10----| D|-10--10--10--10----| A|-8---8---8---8-----| E|-------------------| (Guitarra Solo) E|------------------------------ B|------------------------------ G|---------------------------10- D|------------------------------ A|----------------------------8- E|------------------------------ E|- B|- G|1 D|- A|- E|- E|--------------------| B|--------------------| G|0-10\9-9-9\7-7------| D|--------------------| A|8--8\7-7-7\5-5------| E|--------------------| E|----------------------------- B|----------------------------- G|-12-12-12\10-10-10\9-9-9\7-7- D|----------------------------- A|-10-10-10\8--8--8\-7-7-7\5-5- E|----------------------------- E|----------------------| B|----------------------| G|7\5-5/7-5/9~----------| D|----------------------| A|5\3-3/5-3/7~----------| E|----------------------| C5 Resolvi pensar em nós F5 Vou te levar daqui E|---------------------------- B|---------------------------- G|----------------------10-10- D|---------------------------- A|-----------------------8--8- E|---------------------------- E|- B|- G|1 D|- A|- E|- E|----------------------| B|----------------------| G|0\9-9-9\7-7-7\5-5-5-5-| D|----------------------| A|8\7-7-7\5-5-5\3-3-3-3-| E|----------------------| E|------------------------------- B|------------------------------- G|-12-12-12\10-10-10\9-9-9\7-7-7- D|------------------------------- A|-10-10-10\8--8--8\-7-7-7\5-5-5- E|------------------------------- E|--------------------| B|--------------------| G|7-------------------| D|--------------------| A|5-------------------| E|--------------------| [Refrão] D5 A5 F#5 G5 Vou te levar, yeah D5 A5 F#5 G5 Te levar daqui yeah D5 A5 F#5 G5 Vou te levar, yeah D5 A5 F#5 G5 Te levar daqui yeah [Final] D5 A5 F#5 G5 D5 A5 F#5 G5 D5 A5 F#5 G5 D5 A5 F#5 G5 (Guitarra Base) H.N . . . . . . E|------------------------------- B|------------------------------- G|--7-7----7---------------7----- D|--7-7--7---7------7-7--7---7--- A|--5-5-------------7-7---------- E|------------------5-5---------- E|--------------------| B|--------------------| G|--------------------| D|4-4-x-x-5-5-5-------| (2x) A|4-4-x-x-5-5-5-------| E|2-2-x-x-3-3-3-------| (Guitarra Solo) E|------------------------------- B|------------------------------- G|---11-11/12-11--9-9-9/11-7-x-7- D|---------------------------x--- A|----9--9/10-9---7-7-7/-9-5-x-5- E|------------------------------- E|--------------------| B|--------------------| G|7-------------------| D|--------------------| A|5-------------------| E|--------------------| E|-------------------------------- B|-------------------------------- G|-11-11/12-11--9-9-9/11-7--14\--- D|-------------------------------- A|--9--9/10-9---7-7-7/-9-5--12\--- E|--------------------------------
Composição: ChorãoColaboração e revisão: Getúlio Vasconceloshrickguitar FigueiredoAnderson Oliveiraluiz rochae mais 6