busca

Adestra

Fernandinho

Tom: D
[Intro]  Bm  G  E/G#  Em  D
           Bm  G  E/G#  Em  D

Bm
Adestra minhas mãos para a batalha
Eu creio num Deus que nunca falha
Eu já fui moço, hoje estou velho
Mas nunca vi o justo mendigar o pão

( Bm  G  E/G#  Em  D )

Riff 1
E|--------------------------------------------------------|
B|--------------------------------------------------------|
G|--------------------------------------------------------|
D|---------------2h4------0h2-------------------------|
A|--2--4-5--2-------2-2------2-2--5-4-0-2---------|
E|--------------------------------------------------------|
                   P.M      P.M

Riff 2
E|--------------------------------------------------------|
B|--------------------------------------------------------|
G|--------------------------------------------------------|
D|---------------2h4------0h2-------------------------|
A|--2--4-5--2-------2-2------2-2--5-4-0------------|
E|--------------------------------------------------------|
                   P.M      P.M

Bm
Mil ao meu lado cairão  (Riff 1)
Dez mil à direita fugirão
Eu não tenho medo do cão (Riff 2)
                    Em
Meu Pai é o leão, Ele é o leão

G                                              A          Bm
  Persegui meus inimigos e os alcan...cei
                                    A
Os destruí, os atravessei
G                                                              D
  Mas o Senhor é minha força, o meu escudo
          A9        G
N'Ele confiarei

G                                              A          Bm
  Persegui meus inimigos e os alcan...cei
                                    A
Os destruí, os atravessei
G                                                              D
  Mas o Senhor é minha força, o meu escudo
          A9        Em    G
N'Ele confiarei

( Bm  G  E/G#  Em  D )
( Bm  G  E/G#  Em  D )

Riff 1
E|--------------------------------------------------------|
B|--------------------------------------------------------|
G|--------------------------------------------------------|
D|---------------2h4------0h2-------------------------|
A|--2--4-5--2-------2-2------2-2--5-4-0-2---------|
E|--------------------------------------------------------|
                   P.M      P.M

Riff 2
E|--------------------------------------------------------|
B|--------------------------------------------------------|
G|--------------------------------------------------------|
D|---------------2h4------0h2-------------------------|
A|--2--4-5--2-------2-2------2-2--5-4-0------------|
E|--------------------------------------------------------|
                   P.M      P.M

Bm
Mil ao meu lado cairão  (Riff 1)
Dez mil à direita fugirão
Eu não tenho medo do cão (Riff 2)
                    Em
Meu Pai é o leão, Ele é o leão

G                                              A          Bm
  Persegui meus inimigos e os alcan...cei
                                    A
Os destruí, os atravessei
G                                                              D
  Mas o Senhor é minha força, o meu escudo
          A9        G
N'Ele confiarei

G                                              A          Bm
  Persegui meus inimigos e os alcan...cei
                                    A
Os destruí, os atravessei
G                                                              D
  Mas o Senhor é minha força, o meu escudo
          A9        Em
N'Ele confiarei

Riff 3

E|---------------------------------------------------------------| --------------------------------------------------|
B|---------------------------------------------------------------| --------------------------------------------------|
G|---------------------------------------------------------------| --------------------------------------------------|
D|---------------------------------------------------------------| --------------------------------------------------|
A|---10-12-13--10-10-12-13-13--10-10-10-10-10---| -2-4-5--2-2-4-5-5---2-4-5--2-2-4-5-5---|
E|---10-12-13--10-10-12-13-13--10-10-10-10-10---| -2-4-5--2-2-4-5-5---2-4-5--2-2-4-5-5---|

[Solo]  Bm7  F#m  Em
           G  A9  Bm7  D
           G  A9  F#m

                                       (bends meio tom)
E|--------------------------------------------------------------------------|
B|--------14-15--14-----------10--7-----------------------------------|
G|----------------------------------------9-7--6b7r6b7r6b7r6b7-6--|
D|-----16-----------16-----11-------------------------------------------|
A|--14-------------------9------------------------------------------------|
E|--------------------------------------------------------------------------|

E|------------7----------9---------10---------12-----------------------------------|
B|------------10b12---12b14---13b15---15b17---17b19-22p19r17p15-|
G|-------------------------------------------------------------------------------------|
D|--7--7/9---------------------------------------------------------------------------|
A|-------------------------------------------------------------------------------------|
E|-------------------------------------------------------------------------------------|
                  P.M                                                            T.

E|-----------------------------------------------------------------------|
B|----20b22p19r17p15-----------15---------17---------19-----|
G|---------------------------16~~------------------------------------|
D|---------------------------------/12---| 12/14-----14/16--------|
A|----------------------------------------------------------------------|
E|----------------------------------------------------------------------|
                    T.

E|---------------15-14-12----------------------------------------------|
B|-------15-14------------15-14-12--11-12-14-12-11------------|
G|-------------------------------------------------11-12-11------------|
D|-11/12-----------------------------------------------------------------|
A|-------------------------------------------------------------------------|
E|-------------------------------------------------------------------------|

E|----------------------------------------------------------------------|
B|----------------------------------------------------------------------|
G|-9-------------------------------------------------------------------|
D|----12-11-9--8-9-11-9-8----------------------------------------|
A|---------------------------------10-9-------------------------------|
E|----------------------------------------------------------------------|

G                                              A          Bm
  Persegui meus inimigos e os alcan...cei
                                    A
Os destruí, os atravessei
G                                                              D
  Mas o Senhor é minha força, o meu escudo
          A9        G
N'Ele confiarei

G                                              A          Bm
  Persegui meus inimigos e os alcan...cei
                                    A
Os destruí, os atravessei
G                                                              D
  Mas o Senhor é minha força, o meu escudo
          A9        Em
N'Ele confiarei

Riff 4

E|---------------------------------------------------------------|
B|---------------------------------------------------------------|
G|---------------------------------------------------------------|
D|---------------------------------------------------------------| -
A|---10-12-13--10-10-12-13-13--10-10-10-10-10---|
E|---10-12-13--10-10-12-13-13--10-10-10-10-10---|

( Bm )

Clipes