busca

Ainda Que a Figueira

Fernandinho

Intro
G|------------------------------------------------------|
D|------------------------------------------------------|
A|--------------------------5--7------------------------|
E|--2-2--5--4-2----2-2--5-------------------------------|

G|-------------------------------9----------------------|
D|--------------------------7--9------------------------|
A|------------------------------------------------------|
E|--2-2--5--4-2----2-2--5-------------------------------|

Verse 
G|------------------------------------------------------|
D|-------9h11-9-----------7h9-7-------------------------|
A|--9-9----------9---7-7---------7-----------5-5-5h7p5--|   
E|----------------------------------7-7--5-7----------5-|

G|------------------------------------------------------|
D|-------9h11-9-----------7h9-7-------------------------|
A|--9-9----------9---7-7---------7-----------5-5-5h7p5--|
E|----------------------------------7-7--5-7----------7-|

G|------------------------------------------------------|
D|----------------7-9-7-------7-9-7h9-7-----------------|
A|-------5-7--7-9-------9-7-9-----------9-7-5-5-5h7p5---|
E|5-5--7----------------------------------------------7-|

G|------------------------------------------------------|
D|----------------7-9-7-9-7h9-7-------------------------|
A|-------5-7--7-9---------------9-7-5-5-5h7p5-----------|
E|5-5--7--------------------------------------7---------|

Refão 2x
G|------------------------------------------------------|
D|------------------------------------------------------|
A|---------5--7-7-5--------------5-5------------5-7-7---|
E|--5-5--7----------7-5-7-7--5-7------7--5-5-7--------5-|

G|------------------------------------------------------|
D|------------------------------------------------------|
A|---------3-5-5----------------------------------------|
E|--3-3--5----------------------------------------------|

Volta para o inicio

solo de guitarra

G|---------------------9h11p9---------------9h11p9--------|
D|----------------------------9-7-7----------------9-7-7--|
A|-------------77-------------------77--------------------|
E|7-7--7-5-5-----7-7-------------------7-7----------------|

G|--------------------------------------------------------|
D|--------------------------------------------------------|
A|-77--------7------5~------------------------------------|
E|-----7--------------------------------------------------|

Refrão após o solo

G|--------------------------------------------------------|
D|--------------------------------------------------------|
A|-------7--7-----5-5h7p5--------7--7------5--------------|
E|--5--5-----7--7---------7-5--5------3--3----------------|

G|--------------------------------------------------------|
D|--------------------------------------------------------|
A|---------5--7-7-5--------------5-5------------5-7-7-----|
E|--5-5--7----------7-5-7-7--5-7------7--5-5-7--------5---|

G|--------------------------------------------------------|
D|--------------------------------------------------------|
A|---------3-5-5------------------------------------------|
E|--3-3--5------------------------------------------------|

Clipes