busca

Te Adorar

Fernandinho

Tom: D
[Intro] G#m  E/G#  F#
        G#m  E/G#  F#
        G#m  E/F#  F#

                          G#m                E/G#                           F#
E|-----------------------------------------------------------------------|
B|-------------------------------19~-------------------------------------|
G|----------------------20~-18~-------20~-20~------11x-11x-19/20-18~-18~-|
D|-0x-0x-18\16/18-18~----------------------------------------------------|
A|-----------------------------------------------------------------------|
E|-----------------------------------------------------------------------|

                              G#m          E/G#           F#
E|-----------------------------------------------------------------|
B|---------------------21/23-23-------19--------------16/17/19_19~-|
G|------------------20----------23-18----20~-20~- -19--------------|
D|-0x-0x-18-16-18~-------------------------------------------------|
A|-----------------------------------------------------------------|
E|-----------------------------------------------------------------|

                     F#
E|--16/18-18/19-18-----------------------------|
B|-----------------19--------------------------|
G|--------------------18-16-15-----------------|
D|-----------------------------16--------------|
A|--------------------------------16-14-13~ /4-|
E|---------------------------------------------|

( G#m  E/F#  F# )
( G#m  E/F#  F#  F# )

   B     F#/A#           G#m         F#
O sol, a lua,  as estrelas e o mar
            C#m           G#m        F#
Nada se compara ante a sua formosura
    B           F#/A#          G#m           F#
Os homens, os reinos, principados e potestades
    C#m              G#m      F#
Se prostram ante a sua majestade
                C#m        G#m                 F#
Porque d'Ele por Ele para Ele são todas as coisas
                C#m        G#m                 F#
Porque d'Ele por Ele para Ele são todas as coisas
              G#m B/D# E     B    F#
Só me resta te adorar, te adorar
              G#m B/D# E     B    F#
Eu nasci pra te adorar, te adorar
               C#m       G#m              F#
E dizer que te amo, te amo te amo, te amo
               C#m       G#m              F#
E dizer que te amo, te amo te amo, te amo

[Solo] G#m  F#  E  B  C#  G#m E  G#m  E  E  B  B
                                                                  G#m
E|-------------------------------------16-18-18/19~--16----|
B|-------------------16-16-17-17-19-19-----------------17~-|
G|-15-15-16-16-18-18---------------------------------------|
D|---------------------------------------------------------|
A|---------------------------------------------------------|
E|---------------------------------------------------------|

                         F#               E                       B/D#
E|-16/19\18~---------14-14h16~-14~-16~-14~-14/16~----------|
B|-----------16-16~-------------------------------19~--19~-|
G|---------------------------------------------------------|
D|---------------------------------------------------------|
A|---------------------------------------------------------|
E|---------------------------------------------------------|

                            C#                      G#m
E|------------------16b~---19/21b~-19b~-19b~-19b~-19b~-|
B|----17-16-----18~------------------------------------|
G|-16-------18~----------------------------------------|
D|-----------------------------------------------------|
A|-----------------------------------------------------|
E|-----------------------------------------------------|

                    E/G#                             G#m         E/G#
E|-------19----18----16----14------------------------|
B|----------------------------17----16~-14/16----14~-|
G|-15/16----16----16----16-------16-----------16-----|
D|---------------------------------------------------|
A|---------------------------------------------------|
E|---------------------------------------------------|

                   E/G#       B9 B
E|------------------|
B|------------------|
G|------------------|
D|------------------|
A|-20/21-21~-20-21~-|
E|------------------|

Clipes