busca

Emanuel

Fernandinho

Tom: F
E |-----------------------------------------------------------------------------------------
B |--------------------------------------------------------------------------9-9-9----9-----
G |--------------------------9-9-9--------9-----11-11-11--------11------------9-9-9-----9---
D |------6-7-6----6-7-6------------9-9-9----9------------9-9-9-----9------------------------
A |--3/7--------7---------------------------------------------------------------------------
E |-----------------------------------------------------------------------------------------

E |-----------------------------------------------------------------------------------------
B |--10-10-10---------10------9---9---9----9/10--9---9---9----9/10---9---9---9---9/10-------
G |-----------9-9-9------9------9---9---9----------9---9---9-----------9---9---9------------
D |-----------------------------------------------------------------------------------------
A |-----------------------------------------------------------------------------------------
E |-----------------------------------------------------------------------------------------

E |----------------------
B |--9---9---9---9/10----
G |----9---9---9------9--
D |----------------------
A |----------------------
E |----------------------

(intro)  E B G# A

E             B             G#       A
Deixou a Sua glória para estar comigo
E             B             G#       A
Morreu numa cruz para estar comigo
E             B             G#       A
Venceu o diabo para estar comigo
E             B             G#       A
O véu se rasgou para estar comigo
E
Maravilhoso
B
Conselheiro
Deus forte
 G#    A
Príncipe da paz

D |-----6-7-6---6-7-6---
A |---7-------7---------
E |---------------------
(baixo)

E
Emanuel
B
Emanuel
   G# A
Emanuel

Clipes