busca

Geração de Samuel

Fernandinho

Tom: D
Tablatura 

||-----------0---12H----12H--19H-----------|
||-----------0---12H-----------------------|
||-------9---------------------------------|
||-------9---------------------------------|
||--2----7---------------------------------|
||-----------------------------------------|

||-----------------------------------------|
||------7--7/9--9/10--9--7--5-5------------|
||----9------------------------------------|
||--9--------------------------------------|
||-----------------------------------------|
||-----------------------------------------|

||-----------------------------------------|
||------7--7/9--9/10--9--7--5--12----------|
||----9------------------------------------|
||--9--------------------------------------|
||-----------------------------------------|
||-----------------------------------------|

||----11/12/11----------14/12/11/12--14-14-|
||-12-----------12--12---------------------|
||-----------------------------------------|
||-----------------------------------------|
||-----------------------------------------|
||-----------------------------------------|

||------------------------------------------|
||-12---------------------------------------|
||-----11--9--9/11-------9----------9/11--9-|
||---------------------9---9--9/11----------|
||------------------------------------------|
||------------------------------------------|

||-----------------------------------------|
||--9/10--9--7--5-5-------7--7--9----------|
||----------------------9------------------|
||--------------------9--------------------|
||-----------------------------------------|
||-----------------------------------------|

Clipes

Cifra Club Pro

Aproveite o Cifra Club com benefícios exclusivos e sem anúncios
7 dias grátis
Cifra Club Pro
Aproveite o Cifra Club com benefícios exclusivos e sem anúncios
7 dias grátis