busca

Poema de Salvação

Fernandinho

Tom: C
Intro:
E|--3-3-1-0---0--------------------0-1--------
B|----------3---1------1-3-3-1-1-3----3-3-1-1-
G|-----------------0h2------------------------
D|--------------------------------------------
A|--------------------------------------------
E|--------------------------------------------

E|--3-3-1-0---0-----------------------0----------
B|----------3---1------1-3-3-1----1h3----3-3-1-1-
G|-----------------0h2---------------------------
D|-----------------------------------------------
A|-----------------------------------------------
E|-----------------------------------------------

C                 G       Am
Cristo morreu por mim na cruz
F     G          C
E com poder ressuscitou
C             G     Am
Os meus pecados perdoou
F              G    C
Vem ser Senhor meu Salvador. (2x)

Refrão::
C        G       Am
Vem muda o meu vive
   F         G     C Am
ajuda-me a ser  fiel(2x)

Final:
E|--3-3-1-0---0--------------------0-1--------
B|----------3---1------1-3-3-1-1-3----3-3-1-1-
G|-----------------0h2------------------------
D|--------------------------------------------
A|--------------------------------------------
E|--------------------------------------------

Clipes