busca

Te Adorar

Fernandinho

Tom: D
Intro: Bm  G/B  A (2x)
    Bm                 G/B                  A
E|-----------------------------------------------------------||
B|-3--2--3--2--3--2---3---2--3--2--3---2--2--0--2--0--2--0---||
G|--4--4--4--4--4--4----0--0--0--0--0---0--2--2--2--2--2--2--||
D|---4--4--4--4--4--4----0--0--0--0--0---0--2--2--2--2--2--2-||
A|-2------------------2--------------------0-----------------||
E|-----------------------------------------------------------||

     A
E|---------------------||
B|-2--0--2--0--2---0---||
G|--2--2--2--2--2---2--||
D|---2--2--2--2--2---2-||
A|-0-------------------||
E|---------------------||

    Bm    G/B      A                  Bm               G/B
E|------------------------------------------7~-10~--9~-----------||
B|----7~----10~--7~---------7~------------7-----------10~----10~-||
G|-------9~----------7~--9~---9~--7-6-4-------------------9~-----||
D|-9~------------------------------------------------------------||
A|---------------------------------------------------------------||
E|---------------------------------------------------------------||

    A
E|--------------7-9-10-9-----------------------------------------||
B|-7~---7-8-10------------10-------------------------------------||
G|----------------------------9--7-6-----------------------------||
D|-----------------------------------7---------------------------||
A|--------------------------------------7-5--4-------------------||
E|---------------------------------------------------------------||

  D9      A         Bm7        A
O sol, a lua,  as estrelas e o mar
           Em7         Bm7      A4 A
Nada se compara ante a sua formosura
   D9         A             Bm7          A
Os homens, os reinos, principados e potestades
   Em7             Bm7      A4  A
Se prostram ante a sua majestade..
                Em7       Bm7              A
Porque d'Ele por Ele para Ele são todas as coisas
                 G/B      A9/4             A
Porque d'Ele por Ele para Ele são todas as coisas
               Bm7 G/B    A9/4 A
Só me resta te adorar, te adorar
                Bm7 G/B   A9/4 A
Eu nasci pra te adorar, te adorar
               Em7      Bm7           A
E dizer que te amo, te amo te amo, te amo
               G/B     A9/4           A
E dizer que te amo, te amo te amo, te amo
Solo:
                                           G/B          A9/4
E|---------------------------------------------------------||
B|--------------------------12----12-14-15----14-15-14-----||
G|-9-7-9-7-11-9-12-11-14-12----14----------12----------11--||
D|---------------------------------------------------------||
A|---------------------------------------------------------||
E|---------------------------------------------------------||

            G           D/F#      E          Bm G/B Bm G/B
E|--------------------------------------12-10-10-10-10-9-10---------||
B|--------12-------12-10-----------8-12-----------------------------||
G|-12-14--------12--------12-11-9--------------------------11-10-11-||
D|-----------12-----------------------------------------------------||
A|------------------------------------------------------------------||
E|------------------------------------------------------------------||

Clipes