busca

Te Adorar

Fernandinho

Tom: D
[Intro] Bm  G/B  A
        Bm  G/B  A
        Bm  G/A  A

                          Bm                G/B         A              
E|-----------------------------------------------------------|
B|-------------------7--5--10\/7--5--7--5--------------------|
G|---2/4~----------------------------------------------------|
D|-----------------------------------------------------------|
A|-----------------------------------------------------------|
E|-----------------------------------------------------------|

                              Bm          G/B           A
E|-----------------------------------------------------------|
B|--------------------7-12---15-14\10\5/10\7~--7-8-10-10~--- |
G|---7-6-4~--------------------------------------------------|
D|-----------------------------------------------------------|
A|-----------------------------------------------------------|
E|-----------------------------------------------------------|

( Bm  G/A  A )
( Bm  G/A  A  A )

   D     A9           Bm         A
O sol, a lua,  as estrelas e o mar
            Em           Bm        A
Nada se compara ante a sua formosura
    D           A9           Bm           A
Os homens, os reinos, principados e potestades
    Em              Bm      A
Se prostram ante a sua majestade
                Em        Bm                 A
Porque d'Ele por Ele para Ele são todas as coisas
                Em        Bm                 A
Porque d'Ele por Ele para Ele são todas as coisas
              Bm      G     D    A
Só me resta te adorar, te adorar
              Bm      G     D    A
Eu nasci pra te adorar, te adorar
               Em       Bm              A
E dizer que te amo, te amo te amo, te amo
               Em       Bm              A
E dizer que te amo, te amo te amo, te amo

[Solo] Bm  A  G  D  E  Bm G  Bm  G  G  D  D
                                                                  Bm
E|---------------------------------------------------------|
B|-------------------------------------12-14-14/15~--12----|
G|-------------------11-11-12-12-14-14-----------------12~-|
D|-11-11-12-12-14-14---------------------------------------|
A|---------------------------------------------------------|
E|---------------------------------------------------------|

                         A               G                       D/F#
E|---------------------------------------------------------|
B|-12/15\14~---------10-10h12~-10~-12~-10~-10/12~----------|
G|-----------11-11~-------------------------------14~--14~-|
D|---------------------------------------------------------|
A|---------------------------------------------------------|
E|---------------------------------------------------------|

                            E                      Bm
E|-----------------------------------------------------|
B|------------------12b~---15/17b~-15b~-15b~-15b~-15b~-|
G|----12-11-----13~------------------------------------|
D|-12-------14~----------------------------------------|
A|-----------------------------------------------------|
E|-----------------------------------------------------|

                    G/B                             Bm         G/B
E|-------------------------------------------------|
B|-------15----14----12----10----------------------|
G|----------------------------12----11~-9/11----9~-|
D|-11/12----12----12----12-------12----------12----|
A|-------------------------------------------------|
E|-------------------------------------------------|

                   G/B       D9 D
E|------------------|
B|------------------|
G|------------------|
D|------------------|
A|-11/12-12~-11-12~-|
E|------------------|

Clipes