busca

Sem Você Aqui

Fred e Gustavo

Tom: F (forma dos acordes no tom de D) Capotraste na 3ª casa
[Intro] D  D4  D  D9

[Primeira Parte]

 D             D4                Em
Foram os melhores dias da minha vida
       A
Você e eu éramos como letra e melodia da
      D
Mais linda canção de amor
                                     Em7  A
Mais um dia, quando eu voltei pra casa
Você já não estava mais ali

[Segunda Parte]

  D
Quando você foi embora
              D7+
Eu não via a hora de te ver voltar
  D7                               G
Trazendo a alegria que existia um dia aqui nesse lugar
    Em7
Que apesar de abandonado
             Bm
Tudo aqui é seu e pra sempre será
 F              A                D
Coração tá esperando só você voltar

[Refrão]

 D
Só quem conhece a saudade
             Em
Sabe o gosto amargo que a solidão
 G
Deixa lá dentro do peito
               A
Destruindo os sonhos, planos e paixão
D
As lembranças me atormentam
               Em
Minha própria mente insiste em me trair
 G
Revivendo os bons momentos
               A
Tudo é mais difícil sem você aqui

[Solo] D  Em  G  A

E|--5---2-2--5-5--2-2--7-7--3-3--7-7-------|
B|--7---3-3--7-7--3-3--8-8--5-5--8-8-------|
G|-----------------------------------------|
D|-----------------------------------------|
A|-----------------------------------------|
E|-----------------------------------------|


E|-----------------------------------------|
B|-------------------10-10h9-10----10h9-10-|
G|-9-11-11/9-11-9----------------9---------|
D|-----------------------------------------|
A|-----------------------------------------|
E|-----------------------------------------|


E|-----------------------------------------|
B|-----------------------------------------|
G|-9-11-9----------------------------------|
D|----------9-11-9-7~----------------------|
A|-----------------------------------------|
E|-----------------------------------------|


[Segunda Parte]

  D
Quando você foi embora
              D4+
Eu não via a hora de te ver voltar
  D4                               G
Trazendo a alegria que existia um dia aqui nesse lugar
    Em4
Que apesar de abandonado
             Bm
Tudo aqui é seu e pra sempre será
 F              A                D
Coração tá esperando só você voltar

[Refrão]

 D
Só quem conhece a saudade
             Em
Sabe o gosto amargo que a solidão
 G
Deixa lá dentro do peito
               A
Destruindo os sonhos, planos e paixão
D
As lembranças me atormentam
               Em
Minha própria mente insiste em me trair
 G
Revivendo os bons momentos
               A
Tudo é mais difícil sem você aqui

[Solo] D  Em  G  A  D

E|--5---2-2--5-5--2-2--7-7--3-3--7-7-------|
B|--7---3-3--7-7--3-3--8-8--5-5--8-8-------|
G|-----------------------------------------|
D|-----------------------------------------|
A|-----------------------------------------|
E|-----------------------------------------|


E|-----------------------------------------|
B|-------------------10-10h9-10----10h9-10-|
G|-9-11-11/9-11-9----------------9---------|
D|-----------------------------------------|
A|-----------------------------------------|
E|-----------------------------------------|


E|-----------------------------------------|
B|-----------------------------------------|
G|-9-11-9-------------------9-------9------|
D|----------9-11-9-7~--7-------7h9---------|
A|-----------------------------------------|
E|-----------------------------------------|

Clipes

Cifra Club Pro

Aproveite o Cifra Club com benefícios exclusivos e sem anúncios
Cifra Club Pro
Aproveite o Cifra Club com benefícios exclusivos e sem anúncios