Sem Você Aqui

Fred e Gustavo

A
123
X02220
Bm
234
X24432
D
123
XX0232
D4
123
XX0233
D4+
234
X56775
D7
123
XX0212
D7+
123
XX0222
D9
12
XX0230
Em
12
022000
Em4
1
002000
Em7
123
022030
F
234
133211
G
123
320003
Tom: G
[Intro] D  D4  D  D9

[Primeira Parte]

 D             D4                Em
Foram os melhores dias da minha vida
       A
Você e eu éramos como letra e melodia da
      D
Mais linda canção de amor
                                     Em7  A
Mais um dia, quando eu voltei pra casa
Você já não estava mais ali

[Segunda Parte]

  D
Quando você foi embora
              D7+
Eu não via a hora de te ver voltar
  D7                               G
Trazendo a alegria que existia um dia aqui nesse lugar
    Em7
Que apesar de abandonado
             Bm
Tudo aqui é seu e pra sempre será
 F              A                D
Coração tá esperando só você voltar

[Refrão]

 D
Só quem conhece a saudade
             Em
Sabe o gosto amargo que a solidão
 G
Deixa lá dentro do peito
               A
Destruindo os sonhos, planos e paixão
D
As lembranças me atormentam
               Em
Minha própria mente insiste em me trair
 G
Revivendo os bons momentos
               A
Tudo é mais difícil sem você aqui

[Solo] D  Em  G  A

#1t1##1t2#E|--5---2-2--5-5--2-2--7-7--3-3--7-7-------|
B|--7---3-3--7-7--3-3--8-8--5-5--8-8-------|
G|-----------------------------------------|
D|-----------------------------------------|
A|-----------------------------------------|
E|-----------------------------------------|#/1t2##/1t1#

#2t1##2t2#E|-----------------------------------------|
B|-------------------10-10h9-10----10h9-10-|
G|-9-11-11/9-11-9----------------9---------|
D|-----------------------------------------|
A|-----------------------------------------|
E|-----------------------------------------|#/2t2##/2t1#

#3t1##3t2#E|-----------------------------------------|
B|-----------------------------------------|
G|-9-11-9----------------------------------|
D|----------9-11-9-7~----------------------|
A|-----------------------------------------|
E|-----------------------------------------|#/3t2##/3t1#

[Segunda Parte]

  D
Quando você foi embora
              D4+
Eu não via a hora de te ver voltar
  D4                               G
Trazendo a alegria que existia um dia aqui nesse lugar
    Em4
Que apesar de abandonado
             Bm
Tudo aqui é seu e pra sempre será
 F              A                D
Coração tá esperando só você voltar

[Refrão]

 D
Só quem conhece a saudade
             Em
Sabe o gosto amargo que a solidão
 G
Deixa lá dentro do peito
               A
Destruindo os sonhos, planos e paixão
D
As lembranças me atormentam
               Em
Minha própria mente insiste em me trair
 G
Revivendo os bons momentos
               A
Tudo é mais difícil sem você aqui

[Solo] D  Em  G  A  D

#4t1##4t2#E|--5---2-2--5-5--2-2--7-7--3-3--7-7-------|
B|--7---3-3--7-7--3-3--8-8--5-5--8-8-------|
G|-----------------------------------------|
D|-----------------------------------------|
A|-----------------------------------------|
E|-----------------------------------------|#/4t2##/4t1#

#5t1##5t2#E|-----------------------------------------|
B|-------------------10-10h9-10----10h9-10-|
G|-9-11-11/9-11-9----------------9---------|
D|-----------------------------------------|
A|-----------------------------------------|
E|-----------------------------------------|#/5t2##/5t1#

#6t1##6t2#E|-----------------------------------------|
B|-----------------------------------------|
G|-9-11-9-------------------9-------9------|
D|----------9-11-9-7~--7-------7h9---------|
A|-----------------------------------------|
E|-----------------------------------------|#/6t2##/6t1#
Composição: Elcio Di Carvalho / Fred / Gustavo / Marco AurelioColaboração e revisão: Thiago AlmeidaCleberson VosilkMatheeusJoão Branquinho