busca

Vagabundo Chora

Fred e Gustavo

Tom: E
[Intro] E  B  C#m  A

E|------------------------------------|
B|----------5-7--------------5-7------|
G|-4-4-4-4------4---4-4-4-4------8----|
D|------------------------------------|
A|------------------------------------|
E|------------------------------------|

E|------------------------------------|
B|---7-9-9-9-7----5-------------------|
G|--------------6---6-----------------|
D|------------------------------------|
A|------------------------------------|
E|------------------------------------|

E|------------------------------------|
B|---7-9-9-9-7----5---5---------------|
G|--------------6---6---6-------------|
D|------------------------------------|
A|------------------------------------|
E|------------------------------------|

E
Ô, mano, o grave tá batendo
Paredão tocando
         B
Agora eu me toquei
       C#m
Porque não tocou meu celular
         A        E
Porque não tocou meu celular
Ô, mano
              B
Ali com outro ela chegou
            C#m
Caiu um cisco no meu olho
       A                B
Por causa dela, agora todo mundo sabe

         E
Que vagabundo chora
          B
Que vagabundo ama
          C#m
Que também sente falta
                 A    B
Que toma cana e também toma gaia

Clipes

Cifra Club Pro

Aproveite o Cifra Club com benefícios exclusivos e sem anúncios
Cifra Club Pro
Aproveite o Cifra Club com benefícios exclusivos e sem anúncios