Cor de Ouro

Gusttavo Lima

B5(9)
134
X246XX
C#m
234
X46654
E
123
022100
F#
234
244322
G#m
34
466444
Tom: G
[Intro] B5(9)  F#  G#m  E
        B5(9)  F#  G#m  E

[Violão 1]

#1t1##1t2#E|-------11---------9------------------------11---7--|
B|----12---------11---12-11h12p11---------12------9--|
G|-11---------11------------------11---11---------9--|
D|---------------------------------------------------|
A|---------------------------------------------------|
E|---------------------------------------------------|#/1t2##/1t1#

[Violão 2]

#2t1##2t2#E|---------------------------------------------------|
B|---------------------------------------------------|
G|--8-8-8-8-8-8-8-8--6-6-6-6-6-6-6-6-----------------|
D|--9-9-9-9-9-9-9-9--8-8-8-8-8-8-8-8-----------------|
A|---------------------------------------------------|
E|---------------------------------------------------|#/2t2##/2t1#

#3t1##3t2#E|---------------------------------------------------|
B|---------------------------------------------------|
G|--8-8-8-8-8-8-8-8--9-9-9-9-9-9-9-9-----------------|
D|--9-9-9-9-9-9-9-9--9-9-9-9-9-9-9-9-----------------|
A|---------------------------------------------------|
E|---------------------------------------------------|#/3t2##/3t1#

[Primeira Parte]

B5(9)                     F#
     Nunca pensei que um dia fosse ser assim
G#m                        E
    Você chegou sem dizer nada tomou conta de mim
B5(9)                  F#
     Antes de você chegar só tinha solidão
G#m                     E
    Somente marcas e feridas no meu coração

[Frase Pré-Refrão - violão 2]

#4t1##4t2#E|--3/4----------------------------------------------|
B|------7-5-4----------------------------------------|
G|------------6-4---6--------------------------------|
D|----------------6----------------------------------|
A|---------------------------------------------------|
E|---------------------------------------------------|#/4t2##/4t1#

[Pré-Refrão]

C#m         E                   B5(9)
    Amor você é tudo que eu preciso
C#m                    E               F#
    Com você eu to no céu eu tô no paraíso

[Violão 2]

#5t1##5t2#E|-11--9--7------------------------------------------|
B|-----------9-9p7-------------9h10p9----------------|
G|-11--9--8---------9-8------9--------9--------------|
D|----------------------9-11-------------------------|
A|---------------------------------------------------|
E|---------------------------------------------------|#/5t2##/5t1#

[Refrão]

B5(9)                   F#
     Esse cabelo cor de ouro é que me deixa louco
C#m                        E
    Esse sorriso nos seus lábios que eu me entrego todo
B5(9)                        F#
     Não sei mais ver minha vida sem você por perto
C#m                  E          F#
    Amor sem você comigo a vida é um deserto

B5(9)                   F#
     Esse cabelo cor de ouro é que me deixa louco
C#m                        E
    Esse sorriso nos seus lábios que eu me entrego todo
B5(9)                        F#
     Não sei mais ver minha vida sem você por perto
C#m                  E          F#
    Amor sem você comigo a vida é um deserto

[Solo] B5(9)  F#  C#m  E
       B5(9)  F#  C#m  E  F#

[Solo - violão 2]

#6t1##6t2#E|---------------------------------------------------|
B|--------------------9-11-11/12---------------------|
G|-8-8-8-8-8-9-11-11-------------\9-8-9-8------8-----|
D|----------------------------------------9-11-------|
A|---------------------------------------------------|
E|---------------------------------------------------|#/6t2##/6t1#

#7t1##7t2#E|---------------------------------------------------|
B|--------------------9-11-11/12---------------------|
G|-8-8-8--8-9-11-11--------------\9-8-9-8------------|
D|----------------------------------------9-11-------|
A|---------------------------------------------------|
E|---------------------------------------------------|#/7t2##/7t1#

[Primeira Parte]

B5(9)                     F#
     Nunca pensei que um dia fosse ser assim
G#m                        E
    Você chegou sem dizer nada tomou conta de mim
B5(9)                  F#
     Antes de você chegar só tinha solidão
G#m                     E                   
    Somente marcas e feridas no meu coração

[Frase Pré-Refrão - violão 2]

#8t1##8t2#E|--3/4----------------------------------------------|
B|------7-5-4----------------------------------------|
G|------------6-4---6--------------------------------|
D|----------------6----------------------------------|
A|---------------------------------------------------|
E|---------------------------------------------------|#/8t2##/8t1#

[Pré-Refrão]

C#m         E                   B5(9)
    Amor você é tudo que eu preciso
C#m                    E               F#
    Com você eu to no céu eu tô no paraíso

[Violão 2]

#9t1##9t2#E|-11--9--7------------------------------------------|
B|------------9-9p7------------9h10p9----------------|
G|-11--9--8---------9-8------9--------9--------------|
D|----------------------9-11-------------------------|
A|---------------------------------------------------|
E|---------------------------------------------------|#/9t2##/9t1#

[Refrão]

B5(9)                   F#
     Esse cabelo cor de ouro é que me deixa louco
C#m                        E
    Esse sorriso nos seus lábios que eu me entrego todo
B5(9)                        F#
     Não sei mais ver minha vida sem você por perto
C#m                  E          F#
    Amor sem você comigo a vida é um deserto

B5(9)                   F#
     Esse cabelo cor de ouro é que me deixa louco
C#m                        E
    Esse sorriso nos seus lábios que eu me entrego todo
B5(9)                        F#
     Não sei mais ver minha vida sem você por perto
C#m                  E          F#
    Amor sem você comigo a vida é um deserto

B5(9)                   F#
     Esse cabelo cor de ouro é que me deixa louco
C#m                        E
    Esse sorriso nos seus lábios que eu me entrego todo
B5(9)                        F#
     Não sei mais ver minha vida sem você por perto
C#m                  E          F#           B5(9)
    Amor sem você comigo a vida é um deserto
Composição: Gusttavo LimaColaboração e revisão: Leandro SandimGustavo MenesesPedro OliveiraMilena Aparecidae mais 5
Videoaula Cor de Ouro (aula de violão completa)