busca

1° de Julho

Legião Urbana

Tom: G
Intr. D  C  Am G (com pestana)

RIFF 1(tocado em quase toda música)
e|-2-2-2-3-2--2--2--3--2--|
B|-3-3-3-3-3--3--3--3--3--|
G|-2-2-2-2-2--2--2--2--2--|
D|-0-0-0-0-0--0--0--0--0--|
A|------------------------|
E|------------------------|

   RIFF 1
   D            C
Eu vejo que aprendi 
   Am           G
O quanto te ensinei
   D                 C        Am   G
E nos teus braços que ele vai saber
    D             C
Não há por que voltar
    Am            G
Não penso em te seguir
   D               C      Am  G
Não quero mais a tua insensatez
      G                      D
O que fazes sem pensar aprendeste do olhar
    Em          A               D
E das palavras que aguardei prá ti

  D      C      Am            C      G
e|-5-5-5--3-3-3-3--7-7-7--7-7-7-7---------------|
B|-3-3-3--3-3-3-3--8-8-8--8-8-8-8-5-5-5--3-3-3-3|
G|--------------------------------5-5-5--3-3-3-3|
D|----------------------------------------------|
A|----------------------------------------------|
E|----------------------------------------------|

D                  C
Não penso em me vingar
 Am         G
  Não sou assim
  D               C      Am G
A tua insegurança era por mim
   D             C
Não basta o compromisso
     Am          G
Vale mais o coração
    D           C               Am
Já que não me entendes, não me julgues
        G
Não me tente
    G7M
O que sabes fazer agora
       Em7
Veio tudo de nossas horas
          G          A      D    D  C  Am  G  C  G
Eu não minto, eu não sou assim

  D      C      Am            C      G
e|-5-5-5--3-3-3-3--7-7-7--7-7-7-7---------------|
B|-3-3-3--3-3-3-3--8-8-8--8-8-8-8-5-5-5--3-3-3-3|
G|--------------------------------5-5-5--3-3-3-3|
D|----------------------------------------------|
A|----------------------------------------------|
E|----------------------------------------------|
 
     D                   G
Ninguém sabia e ninguém viu
          D                  G
Que eu estava a teu lado então
    G                D9/F#     Em
Sou fera, sou bicho,    sou anjo e sou mulher
          Am
Sou minha mãe e minha filha, 
         D
Minha irmã, minha menina
        G                 D9/F#       Em
Mas sou minha, só minha        e não de quem quiser
     A                      D      Bm   C   D  / D     Bm  C   D /2X
Sou Deus, tua deusa, meu amor
e|-------------------|
B|-------------------|
G|-------------------|
D|-4s5-5-5-5-5-5-4-4-|
A|-------------------|
E|-------------------|
  D            Bm    C
Alguma coisa aconteceu
  D                 Bm   C     D   G   C
Do ventre nasce um novo coração

        C
e|--12-12-12-12-12-12-|
B|--13-13-13-13-13-13-|
G|--12-12-12-12-12-12-|
D|--------------------|
A|--------------------|
E|--------------------|
 G
Não penso em me vingar
D9/F#  Em
     Não sou assim
   A                  D
A tua insegurança era por mim
   G
Não basta o compromisso
D9/F#   Em
Vale mais o coração
         A
Ninguém sabia, ninguém viu
          D
Que eu estava ao teu lado então
   G                 D9/F#   Em
Sou fera, sou bicho,    sou anjo e sou mulher
          A
Sou minha mãe e minha filha, 
      D
Minha irmã, minha menina
   G                     D9/F#   Em
Mas sou minha, só minha,     e não de quem quiser
     A                     D  C  Am G /  D  C  Am G
Sou Deus, tua deusa, meu amor             uuuuh...
 D    C     Am    G        D   C   Am  G
Baby, baby, baby, baby     yeah
      D            C
O que fazes por sonhar
    Am           G     D   C         Am  G
É o mundo que virá prá ti    e para mim
G7M        Em7                   G   A
 Vamos descobrir o mundo juntos baby  Ahhhh...
D                    G        D9/F# Em7
Quero aprender com o teu pequeno grande coração
      G   A        D
Meu amor,    meu amor
  
e|-5-5-5--3-3-3-3-|
B|-3-3-3--3-3-3-3-|

 C   Bm    C      D
Ahhh....     Baby

Clipes