A Ordem Dos Templários

Legião Urbana

B5
134
X244XX
D5
134
X577XX
E5
12
022XXX
Em
12
022000
F#
234
244322
G
123
320003
Tom: G
 (Renato Russo/ Marcelo Bonfá/ Dado Villa-Lobos)

#1t1#   E5                E5                E5                E5             Em
#1t2#E|-----------------|-----------------|-----------------|---------------|-0-| |
B|---------7-------|---------7-------|---------7-------|---------7-----|-0-| |
G|-----9-------7---|-----9-------7---|-----9-------7---|-----9-------9-|-0-| |
D|---9---9---9---9-|---9---9---9---9-|---9---9---9---9-|---9---9---9---|-2-| |
A|-7---------------|-7---------------|-7---------------|-7-------------|-2-| |
E|-----------------|-----------------|-----------------|---------------|-0-| V#/1t2##/1t1#
     
#2t1#   E5          D5                B5                G       F#
#2t2#E|-----------|-----------------|-----------------|-----3------2-|
B|-----7-8---|---------5---7---|---------2---3---|---3------2---|
G|-9-------0-|-----7-----------|-----4-----------|--------------|
D|---9-------|---7---7---7---7-|---4---4---4---4-|--------------|
A|-----------|-5---------------|-2---------------|--------------|
E|-----------|-----------------|-----------------|-3------2-----|#/2t2##/2t1#

#3t1#  Riff 1 
#3t2#E|-----------------------5-7-5------------5h7p5...--5h7p5------------|
B|-5-7-8-7--7h8p7--7-7-8-------8-8-7-8-7------------------8-8-7-8-7--|1
G|-------------------------------------------------------------------|v
D|-------------------------------------------------------------------|e
A|-------------------------------------------------------------------|z
E|-------------------------------------------------------------------|#/3t2##/3t1#

#4t1#(Junto com o Riff 1)
   E5              D5                B5                G      F#
#4t2#E|---------------|-----------------|-----------------|-----3------2-|
B|---------7-8---|---------5---7---|---------2---3---|---3------2---|
G|-----9-------0-|-----7-----------|-----4-----------|--------------|
D|---9---9-------|---7---7---7---7-|---4---4---4---4-|--------------|
A|-7-------------|-5---------------|-2---------------|--------------|
E|---------------|-----------------|-----------------|-3------2-----|#/4t2##/4t1#

#5t1##5t2#E|-7-7---------------7-7-5---------7-----------5---------------|
B|------8-7-5-7--7-5-------8-7-5-7----8-7-5-7-----8--7-5-3-5-5-|
G|-------------------------------------------------------------|
D|-------------------------------------------------------------|
A|-------------------------------------------------------------|
E|-------------------------------------------------------------|#/5t2##/5t1#

#6t1##6t2#E|-9-12-12-10-9-7---7--------7---9-7---------------7---|
B|--------------------10--8----------10-8-7-5-8-10-----|
G|-----------------------------------------------------|
D|-----------------------------------------------------|
A|-----------------------------------------------------|
E|-----------------------------------------------------|#/6t2##/6t1#

#7t1##7t2#E|-9-12-12-10-9-7---7--------7---9-7--------------------------|
B|--------------------10--8----------10-8-7--5--7-5--3-5-5-5--|
G|------------------------------------------------------------|
D|------------------------------------------------------------|
A|------------------------------------------------------------|
E|------------------------------------------------------------|#/7t2##/7t1#

#8t1##8t2#E|----------------------------------------------|-7~-8~--12-11-12-8~-7~-------------|
B|-4---5-7-4-5-7-5--7-8-5-7-8-7--8-10-7-8-10-10-|-----------------------10~-8-7---7-|
G|----------------------------------------------|-------------------------------9---|
D|----------------------------------------------|-----------------------------------|
A|----------------------------------------------|-----------------------------------|
E|----------------------------------------------|-----------------------------------|#/8t2##/8t1#

#9t1# 2ª Parte
   E5              D5                B5                G      F#
#9t2#E|---------------|-----------------|-----------------|-----3------2-|2
B|---------7-8---|---------5---7---|---------2---3---|---3------2---|v
G|-----9-------0-|-----7-----------|-----4-----------|--------------|e
D|---9---9-------|---7---7---7---7-|---4---4---4---4-|--------------|z
A|-7-------------|-5---------------|-2---------------|--------------|e
E|---------------|-----------------|-----------------|-3------2-----|s#/9t2##/9t1#

#10t1#Guitarra - Riff 2
#10t2#e|---------15---------14---------12---------10---------15---------14--|
B|-5/12-12----12s5/12----12s5/12----12s5/12----12s5/12----12s5/12-----|
G|--------------------------------------------------------------------|
D|--------------------------------------------------------------------|
A|--------------------------------------------------------------------|
E|--------------------------------------------------------------------|#/10t2##/10t1#

#11t1# (Junto com a Guitarra - Riff 2)                                
#11t2#E|-7-7---------------7-7-5---------7-----------5---------------|
B|------8-7-5-7--7-5-------8-7-5-7----8-7-5-7-----8--7-5-3-5-5-|
G|-------------------------------------------------------------|
D|-------------------------------------------------------------|
A|-------------------------------------------------------------|
E|-------------------------------------------------------------|#/11t2##/11t1#

 Guitarra - Riff 3              (Junto com a Guitarra - Riff 3)
   I           II                             I                       II
#12t1##12t2#E|-----------------------------||-9-12-12-10-9-7---7-------7--9-7---------------7---|
B|-3-3/5--3-0--2-2/3--3-0--3-0-||--------------------10--8--------10-8-7-5-8-10-----|
G|-----------------------------||---------------------------------------------------|
D|-----------------------------||---------------------------------------------------|
A|-----------------------------||---------------------------------------------------|
E|-----------------------------||---------------------------------------------------|#/12t2##/12t1#

(Junto com a Guitarra - Riff 3)
               I                         II
#13t1##13t2#E|-9-12-12-10-9-7---7--------7---9-7--------------------------|
B|--------------------10--8----------10-8-7--5--7-5--3-5-5-5--|
G|------------------------------------------------------------|
D|------------------------------------------------------------|
A|------------------------------------------------------------|
E|------------------------------------------------------------|#/13t2##/13t1#

#14t1##14t2#E|---------------------------------------------||-7~-8~--12-11-12-8~-7~-------------|
B|-4--5-7-4-5-7-5--7-8-5-7-8-7--8-10-7-8-10-10-||-----------------------10~-8-7---7-|
G|---------------------------------------------||-------------------------------9---|
D|---------------------------------------------||-----------------------------------|
A|---------------------------------------------||-----------------------------------|
E|---------------------------------------------||-----------------------------------|#/14t2##/14t1#

  Final

#15t1##15t2#E|---------------------|----------------|
B|---------------------|----------------|
G|-(5~)-(4~)-(2~)-(1~)-|-(5~)-(4~)-(2~)-|
D|---------------------|----------------|
A|---------------------|----------------|
E|---------------------|----------------|#/15t2##/15t1#

#16t1##16t2#E|------------10--12-12--15-15--17-17--19-19-------|
B|-7/9-9--12---------------------------------15-17-|
G|-------------------------------------------------|
D|-------------------------------------------------|
A|-------------------------------------------------|
E|-------------------------------------------------|#/16t2##/16t1#

Notações:             
/ = slide       ()= Let ring     ~ = vibrato    s = slide


Acordes - E5 (x799xx)  D5 (x577xx)   B5 (x244xx)  G  (355433)  Gb (244322)
Composição: Dado Villa-Lobos / Renato RussoColaboração e revisão: Renan Santos