busca

A Ordem Dos Templários

Legião Urbana

Tom: G
 (Renato Russo/ Marcelo Bonfá/ Dado Villa-Lobos)

   E5                E5                E5                E5             Em
E|-----------------|-----------------|-----------------|---------------|-0-| |
B|---------7-------|---------7-------|---------7-------|---------7-----|-0-| |
G|-----9-------7---|-----9-------7---|-----9-------7---|-----9-------9-|-0-| |
D|---9---9---9---9-|---9---9---9---9-|---9---9---9---9-|---9---9---9---|-2-| |
A|-7---------------|-7---------------|-7---------------|-7-------------|-2-| |
E|-----------------|-----------------|-----------------|---------------|-0-| V
     
   E5          D5                B5                G       Gb
E|-----------|-----------------|-----------------|-----3------2-|
B|-----7-8---|---------5---7---|---------2---3---|---3------2---|
G|-9-------0-|-----7-----------|-----4-----------|--------------|
D|---9-------|---7---7---7---7-|---4---4---4---4-|--------------|
A|-----------|-5---------------|-2---------------|--------------|
E|-----------|-----------------|-----------------|-3------2-----|

  Riff 1 
E|-----------------------5-7-5------------5h7p5...--5h7p5------------|
B|-5-7-8-7--7h8p7--7-7-8-------8-8-7-8-7------------------8-8-7-8-7--|1
G|-------------------------------------------------------------------|v
D|-------------------------------------------------------------------|e
A|-------------------------------------------------------------------|z
E|-------------------------------------------------------------------|

(Junto com o Riff 1)
   E5              D5                B5                G      Gb
E|---------------|-----------------|-----------------|-----3------2-|
B|---------7-8---|---------5---7---|---------2---3---|---3------2---|
G|-----9-------0-|-----7-----------|-----4-----------|--------------|
D|---9---9-------|---7---7---7---7-|---4---4---4---4-|--------------|
A|-7-------------|-5---------------|-2---------------|--------------|
E|---------------|-----------------|-----------------|-3------2-----|

E|-7-7---------------7-7-5---------7-----------5---------------|
B|------8-7-5-7--7-5-------8-7-5-7----8-7-5-7-----8--7-5-3-5-5-|
G|-------------------------------------------------------------|
D|-------------------------------------------------------------|
A|-------------------------------------------------------------|
E|-------------------------------------------------------------|

E|-9-12-12-10-9-7---7--------7---9-7---------------7---|
B|--------------------10--8----------10-8-7-5-8-10-----|
G|-----------------------------------------------------|
D|-----------------------------------------------------|
A|-----------------------------------------------------|
E|-----------------------------------------------------|

E|-9-12-12-10-9-7---7--------7---9-7--------------------------|
B|--------------------10--8----------10-8-7--5--7-5--3-5-5-5--|
G|------------------------------------------------------------|
D|------------------------------------------------------------|
A|------------------------------------------------------------|
E|------------------------------------------------------------|

E|----------------------------------------------|-7~-8~--12-11-12-8~-7~-------------|
B|-4---5-7-4-5-7-5--7-8-5-7-8-7--8-10-7-8-10-10-|-----------------------10~-8-7---7-|
G|----------------------------------------------|-------------------------------9---|
D|----------------------------------------------|-----------------------------------|
A|----------------------------------------------|-----------------------------------|
E|----------------------------------------------|-----------------------------------|

 2ª Parte
   E5              D5                B5                G      Gb
E|---------------|-----------------|-----------------|-----3------2-|2
B|---------7-8---|---------5---7---|---------2---3---|---3------2---|v
G|-----9-------0-|-----7-----------|-----4-----------|--------------|e
D|---9---9-------|---7---7---7---7-|---4---4---4---4-|--------------|z
A|-7-------------|-5---------------|-2---------------|--------------|e
E|---------------|-----------------|-----------------|-3------2-----|s

Guitarra - Riff 2
e|---------15---------14---------12---------10---------15---------14--|
B|-5/12-12----12s5/12----12s5/12----12s5/12----12s5/12----12s5/12-----|
G|--------------------------------------------------------------------|
D|--------------------------------------------------------------------|
A|--------------------------------------------------------------------|
E|--------------------------------------------------------------------|

 (Junto com a Guitarra - Riff 2)                                
E|-7-7---------------7-7-5---------7-----------5---------------|
B|------8-7-5-7--7-5-------8-7-5-7----8-7-5-7-----8--7-5-3-5-5-|
G|-------------------------------------------------------------|
D|-------------------------------------------------------------|
A|-------------------------------------------------------------|
E|-------------------------------------------------------------|

 Guitarra - Riff 3              (Junto com a Guitarra - Riff 3)
   I           II                             I                       II
E|-----------------------------||-9-12-12-10-9-7---7-------7--9-7---------------7---|
B|-3-3/5--3-0--2-2/3--3-0--3-0-||--------------------10--8--------10-8-7-5-8-10-----|
G|-----------------------------||---------------------------------------------------|
D|-----------------------------||---------------------------------------------------|
A|-----------------------------||---------------------------------------------------|
E|-----------------------------||---------------------------------------------------|

(Junto com a Guitarra - Riff 3)
               I                         II
E|-9-12-12-10-9-7---7--------7---9-7--------------------------|
B|--------------------10--8----------10-8-7--5--7-5--3-5-5-5--|
G|------------------------------------------------------------|
D|------------------------------------------------------------|
A|------------------------------------------------------------|
E|------------------------------------------------------------|

E|---------------------------------------------||-7~-8~--12-11-12-8~-7~-------------|
B|-4--5-7-4-5-7-5--7-8-5-7-8-7--8-10-7-8-10-10-||-----------------------10~-8-7---7-|
G|---------------------------------------------||-------------------------------9---|
D|---------------------------------------------||-----------------------------------|
A|---------------------------------------------||-----------------------------------|
E|---------------------------------------------||-----------------------------------|

  Final

E|---------------------|----------------|
B|---------------------|----------------|
G|-(5~)-(4~)-(2~)-(1~)-|-(5~)-(4~)-(2~)-|
D|---------------------|----------------|
A|---------------------|----------------|
E|---------------------|----------------|

E|------------10--12-12--15-15--17-17--19-19-------|
B|-7/9-9--12---------------------------------15-17-|
G|-------------------------------------------------|
D|-------------------------------------------------|
A|-------------------------------------------------|
E|-------------------------------------------------|

Notações:             
/ = slide       ()= Let ring     ~ = vibrato    s = slide


Acordes - E5 (x799xx)  D5 (x577xx)   B5 (x244xx)  G  (355433)  Gb (244322)

Clipes