Central do Brasil

Legião Urbana

Am
123
X02210
Am7
12
X02010
Bm7
34
X24232
C
123
X32010
D
123
XX0232
D4
123
XX0233
Em
12
022000
Em7
123
022030
F
234
133211
G
123
320003
G7
34
353433
Tom: G

Dedilhe estes acordes enquando um violão de 12 cordas faz o solo.

#1t1#   G              F              D             G
#1t2#E|-10---------------------------------------------------|
B|------10-12----10---10/12-12--------------------------|
G|-------------------------------11---11-11----11--12---|
D|------------------------------------------------------|
A|------------------------------------------------------|
E|------------------------------------------------------|(2x)#/1t2##/1t1#

#2t1#       Em     G7        C         Am     D4 D   G
#2t2#E|---------------------------------0------3-2-----------|
B|---------------------------------1------3-3-3-3-------| 
B|--10/12---9/10-10---7/9---9-9----2------2-2-----------| 
D|---------------------------------2------0-0-----------|
A|---------------------------------0--------------------|
E|------------------------------------------------------|(2x)#/2t2##/2t1#

#3t1#   G              F              D             G
#3t2#E|-10---9-----------------------------------------------|
B|---------12----10---10/12-12--------------------------|
G|-------------------------------11---11-11----11--12---|
D|------------------------------------------------------|
A|------------------------------------------------------|
E|------------------------------------------------------|(2x)#/3t2##/3t1#

#4t1#   Em7           Am7             Bm7           Bm7 D4
#4t2#E|-10---9-----------------------------------------------|
B|---------12----10---10/12-12--------------------------|
G|-------------------------------11---11-11----11--12---|
D|------------------------------------------------------|
A|------------------------------------------------------|
E|------------------------------------------------------|#/4t2##/4t1#

#5t1#   G              F              D             G
#5t2#E|-10---------------------------------------------------|
B|------10-12----10---10/12-12--------------------------|
G|-------------------------------11---11-11----11--12---|
D|------------------------------------------------------|
A|------------------------------------------------------|
E|------------------------------------------------------|#/5t2##/5t1#

#6t1#       Em     G7        C         Am     D4 D   G
#6t2#E|---------------------------------0------3-2-----------|
B|---------------------------------1------3-3-3-3-------| 
B|--10/12---9/10-10---7/9---9-9----2------2-2-----------| 
D|---------------------------------2------0-0-----------|
A|---------------------------------0--------------------|
E|------------------------------------------------------|(3x)#/6t2##/6t1#



Enviado por:
Composição: Renato RussoColaboração e revisão: