Conexão Amazônica

Legião Urbana

Bb
234
X13331
Bb5
134
X133XX
C
123
X32010
C#
234
X46664
C#5
134
X466XX
Eb
234
X65343
F
234
133211
F5
134
133XXX
Tom: G
#1t1#Versão 1
#1t2#-======-#/1t2##/1t1#

Introd.: Bb5 (F5,Bb5)

#2t1#Riff: Bb5    (F5                        Bb5)
#2t2#E|---------------------------------------------|
B|---------------------------------------------|
G|----3-3-3-----------------------------3-3-3--| esse riff vai junto com os acordes (F5,Bb5)
D|----3-3-3---3---3-3-3---3-3-3---3-3---3-3-3--|
A|----1-1-1---3---3-3-3---3-3-3---3-3---1-1-1--|
E|------------0h1-1-1-0h1-1-1-0h1-1-1----------|#/2t2##/2t1#

           (F5 Bb5)
 Estou cansado de ouvir falar
 Em Freud,Jung,Engels e Marx
 Intrigas intelectuais rodando em mesa de bar

 C#5
 Yeah,yeah,yeah
 Bb5
 Yeah,yeah,yeah
 F5
 Yeah,yeah,yeah

          (F5 Bb5)
 O que eu quero,eu não tenho
 O que eu não tenho,eu quero ter
 Não posso ter o que eu quero
 E acho que isso não tem nada a ver

 C#5
 Yeah,yeah,yeah
 Bb5
 Yeah,yeah,yeah
 F5
 Yeah,yeah,yeah

      (F5 Bb5)
 Os tambores da selva já começaram a rufar
 Os tambores da selva já começaram a rufar
 A cocaína não vai chegar
 A cocaína não vai chegar
 Conexão amazônica está interrompida

 C#5
 Yeah,yeah,yeah
 Bb5
 Yeah,yeah,yeah
 F5
 Yeah,yeah,yeah

       C                          Eb                         F
 E você quer ficar maluco sem dinheiro e acha que está tudo bem
        C                      Eb                      F
 Mas alimento pra cabeça nunca vai matar a fome de ninguém
     C                   Eb                      F
 Uma peregrinação involuntária talvez fosse a solução
      C                         Eb              F
 Auto-exílio nada mais é do que ter seu coração na solidão

 C#5
 Yeah,yeah,yeah
 Bb5
 Yeah,yeah,yeah
 F5
 Yeah,yeah,yeah

 Solo:
Guitarra.
#3t1##3t2#E|----------------------------|
B|-5-7b8-5-7b8-5--8-5-0-5~-5~-|4x antes de entrar o violão, aí ele muda um pouco.
G|----------------------------|
D|----------------------------|
A|----------------------------|
E|----------------------------|#/3t2##/3t1#

#4t1#Guitarra: Este solo já é na hora em que o violão começa, ele aparece algumas vezes.
#4t2#E|--------------------------------|
B|-5-7b8-5-7b8-5--8-5-0-5-8s10-5~-|
G|--------------------------------|
D|--------------------------------|
A|--------------------------------|
E|--------------------------------|#/4t2##/4t1#

#5t1#Violão:
#5t2#E|-7-7-7--5-7-10-10-7-7---7-7-9-10--10-10-10-10-9~-9-7-7-7--5-7-10-10-7-7---7-7-9-10--10-10-10-10-9~|
B|--------------------------------------------------------------------------------------------------|
G|--------------------------------------------------------------------------------------------------|
D|--------------------------------------------------------------------------------------------------|
A|--------------------------------------------------------------------------------------------------|
E|--------------------------------------------------------------------------------------------------|#/5t2##/5t1#

       (F5 Bb5)
 Estou cansado de ouvir  falar
 Em Freud, Jung, Engels e Marx
 Intrigas intelectuais
 Rodando em mesa de bar

 C#5
 Yeah,yeah,yeah
 Bb5
 Yeah,yeah,yeah
 F5
 Yeah,yeah,yeah

#6t1#Violão do final:
#6t2#E|------------------------|
B|-3-3-3-3--2-3-2-3-3s5-5-|8x
G|------------------------|
D|------------------------|
A|------------------------|
E|------------------------|#/6t2##/6t1#

Acordes:
       EADGBE
F5  ->(1330xx)
#7t1##7t2#B|->(113331)#/7t2##/7t1#
Bb5 ->(x1330x)
Db5 ->(x4660x)
#8t1##8t2#C   ->(335553)
E|->(x65343)
F   ->(133211)#/8t2##/8t1#

#9t1#Notações:
#9t2#B|-> bend#/9t2##/9t1#
s -> slide

(Transcrita por:Gabriel Ysllu Chagas)
Urbana Legio Omnia Vincin. Força sempre
Ouça sempre no ultimo volume.




_____________________________________________________________________




#10t1#Versão 2
#10t2#-======-#/10t2##/10t1#

Conexão Amazônica
De: Renato Russo/ Fê Lemos
Álbum: Que país é este
Cifrado: sacrificedevil
Intro: (Bb F)

            Bb    (F                        Bb)

#11t1##11t2#E|- - - - - - - - - - - - - - - - - - - - - - - - - - -
B|- - - - - - - - - - - - - - - - - - - - - - - - - - -
G|- - - - 3-3-3 - - - - - - - - - - - - 3- -3 -3 -
D|- - - -3 -3-3 -3 - 3- 3 - - - - - - 3- -3 -3 -
A|- - - -1 -1-1 -3 -3 -3 - - - - - - -1 - 1- 1- -
E|- - - - - - - - - 1- 1- 1-0h1 - - - - - - - - - -#/11t2##/11t1#

      (F Bb)
Estou cansado de ouvir falar
Em Freud,Jung,Engels e Marx
Intrigas intelectuais rodando em mesa de bar

 C#        Bb    F
 Ei  ei ei ei  ei ei.....


          (F Bb)
 O que eu quero,eu não tenho
 O que eu não tenho,eu quero ter
 Não posso ter o que eu quero
 E acho que isso não tem nada a ver

 C#        Bb    F
 Ei  ei ei ei  ei ei.....

             F
 Os tambores da selva já começaram a rufar
 Os tambores da selva já começaram a rufar
 A cocaína não vai chegar
 A cocaína não vai chegar
 Conexão amazônica está interrompida

 C#        Bb    F
 Ei  ei ei ei  ei ei.....

             C                                    Eb                                            F
 E você quer ficar maluco sem dinheiro e acha que está tudo bem
              C                                 Eb                                 F
 Mas alimento pra cabeça nunca vai matar a fome de ninguém
         C                             Eb                            F
 Uma peregrinação involuntária talvez fosse a solução
            C                                  Eb                    F
 Auto-exílio nada mais é do que ter seu coração na solidão

  C#        Bb    F
 Ei  ei ei ei  ei ei.....

 Solo: Guitarra

#12t1##12t2#E|----------------------------
B|-5-7b8-5-7b8-5--8-5-0-5-5~-
G|----------------------------
D|----------------------------
A|----------------------------
E|----------------------------#/12t2##/12t1#
#13t1#quando o solo do violão entra muda um pouco o da guitarra em algumas partes melhor ouvir a música para saber
#13t2#E|--------------------------------
B|-5-7b8-5-7b8-5--8-5-0-5-8s10-5~-
G|--------------------------------
D|--------------------------------
A|--------------------------------
E|--------------------------------#/13t2##/13t1#
obs: fazer esse solo se baseando no ritimo da música, tente ouvir a bateria da música assim ficará mais facil

#14t1#Violão:
#14t2#E|-7-7-7--5-7-10-10-7-7---7-7-9-10--10-10-10-10-9~-9-7-7-7--5-7-10-10-7-7---7-7-9-10--10-10-10-10-9~
B|---------------------------------------------------------------------------------------------------
G|---------------------------------------------------------------------------------------------------
D|--------------------------------------------------------------------------------------------------
A|--------------------------------------------------------------------------------------------------
E|-------------------------------------------------------------------------------------------------#/14t2##/14t1#

       (F Bb)
 Estou cansado de ouvir  falar
 Em Freud, Jung, Engels e Marx
 Intrigas intelectuais
 Rodando em mesa de bar

 C#        Bb    F
 Ei  ei ei ei  ei ei.....

#15t1#solinho do violão no final facil segui a obs de cima ok.
#15t2#E|------------------------
B|-3-3-3-3--2-3-2-3-3-5-5-
G|------------------------
D|------------------------
A|------------------------
E|------------------------#/15t2##/15t1#

Rock Na veia viva a legião para todos os metaleiros vida longa.
Composição: Felipe Lemos / Renato RussoColaboração e revisão: Gabriel Chagas