busca

Head On

Legião Urbana

Tom: C
Dado:
   C
e|-x-x-x-x-x-x------------------|
B|-x-x-x-x-x-x--8--8--8--8------|
G|-x-x-x-x-x-x--9--9--9--9------|
D|-x-x-x-x-x-x-10-10-10-10------|
A|-x-x-x-x-x-x-10-10-10-10------|
E|-x-x-x-x-x-x--8--8--8--8------|

C/G
As soon I get my head round you
I come around catching sparks off you
I get an eletric charge from you
That second hand living it just won't do

Dado:

e|--------------------------------------|
B|--------------------------------------|
G|------9-------9-------9-------9-------|
D|-----10------10------10------10-------|
A|-----10------10------10------10-------|
E|-7/8--8--7/8--8--7/8--8--7/8--8-------|
         F          G
And the way feel tonight
         C/G                  F
I could die and I wouldn't mind
                                  G
And there's something going on inside
 C/G
Makes you want to feel, makes you want to try
F                             G
Makes you want to blow, the stars from the sky
  C/G
I can't stand up, I can't cool down
   F                G         C/G       F G
I can't get my head off the ground, ooo... 

Dado:
   C
e|-x-x-x-x-x-x------------------|
B|-x-x-x-x-x-x--8--8--8--8------|
G|-x-x-x-x-x-x--9--9--9--9------|
D|-x-x-x-x-x-x-10-10-10-10------|
A|-x-x-x-x-x-x-10-10-10-10------|
E|-x-x-x-x-x-x--8--8--8--8------|

C/G
As soon as I get my heart round you
I come around catching sparks off you
And all I ever got from you
Was all I ever took from you

Dado
   C
e|-x-x-x-x-x-x------------------|
B|-x-x-x-x-x-x--8--8--8--8------|
G|-x-x-x-x-x-x--9--9--9--9------|
D|-x-x-x-x-x-x-10-10-10-10------|
A|-x-x-x-x-x-x-10-10-10-10------|
E|-x-x-x-x-x-x--8--8--8--8------|


e|--------------------------------------|
B|--------------------------------------|
G|------9-------9-------9-------9-------|
D|-----10------10------10------10-------|
A|-----10------10------10------10-------|
E|-7/8--8--7/8--8--7/8--8--7/8--8-------|
         F                  G
And the world could die in pain
        C/G                F
And I wouldn't feel no shame
                                    G
And there's nothing holding me to blame
C/G
Makes you want to feel, makes you
want to try
F                             G
Makes you want to blow, the stars from the sky
     C/G
I'm taking myself, to the dirty part of town
      F                G        C/G      F   G (F Em)toca só os bordões
Where all my troubles can't be found, ooo...


durante o solo, Renato toca as cordas graves desses acordes(C/G F G)

Solo:
E|-------------------------------------------------|
B|---------------------------------------------8---|
G|-----5-5-5-5-7-5---5-5-------5-5-5-7-5-7-7/9---9-|
D|-5/7-------------7-----5-5/7---------------------|
A|-------------------------------------------------|
E|-------------------------------------------------|

E|-------------------------------------------------|
B|---------------------------------------------8---|
G|-----5-5-5-5-7-5-7-5---------5-5-5-7-5-7-7/9---9-|
D|-5/7------------------5-5/7----------------------|
A|-------------------------------------------------|
E|-------------------------------------------------|



 C/G
Ah yeah
    F  G
Ah yeah
C/G                        F                    G
Makes you want to feel, makes you want to try
C/G                        F                    G
Makes you want to feel, makes you want to try
    C/G
Ah yeah
    F   G C/G
Ah yeah

Clipes